>
 >
Evil Hearted You

Evil Hearted You Bass Tabs

Yardbirds - Evil Hearted You chords, tabs, tablatures, lyrics

Guitar lessons | Add/correct | Request | Top 50 tabs Artists:  A B C D E F G H I J K L M N O P Q R S T U V W X Y Z 0-9

Evil Hearted You Bass Tabs – Yardbirds

CD, Sheet music, Poster

Do you like Evil Hearted You? Share with your friends now
Bass TabsChordsTabsUkulele
The Yardbirds
Written by Graham Gouldman; released as a single with "Still I'm Sad" as the 
B-side, and on the album "Having A Rave Up".

Intro:
G|5------ ------- ------- -------|------- ------- ------- -------|
D|-------------------------------|7------------------------------|
A|------------7------------------|------------7------------------|
E|-------------------------------|-------------------------------|



G|5------ ------- ------- -------|------- ------- ------- -------|
D|-------------------------------|7------------------------------|
A|------------7------------------|------------7------------------|
E|-------------------------------|-------------------------------|


Verse:
G|------- ------- ------- -------|5------ ----5-- ------- 5------|
D|-------------------------------|----------------5--------------|
A|7-----------7-----------7------|-------------------------------|
E|----------------7--------------|-------------------------------|
          E - vil hearted     you,                    you     al-


G|------- ------- ------- -------|------- ------- ------- -------|
D|-------------------------------|9-------7----------------------|
A|8-----------8-----------8------|----------------10------9------|
E|----------------8--------------|-------------------------------|
                      ways        try     to      put     me


G|------- ------- ------- -------|5------ ----5-- ------- 5------|
D|-------------------------------|----------------5--------------|
A|7-----------7-----------7------|-------------------------------|
E|----------------7--------------|-------------------------------|
  down    With the things you do,                     and


G|------- ------- ------- -------|------- ------- ------- -------|
D|-------------------------------|9-------7----------------------|
A|8-----------8-----------8------|----------------10------9------|
E|----------------8--------------|-------------------------------|
  words                       you spread  a   -   round   a - gainst


G|------- ------- ------- -------|------- ------- ------- -------|
D|-------------------------------|7------------------------------|
A|7---------------7--------------|------------7------------------|
E|-------------------------------|-------------------------------|
                  me.


G|5------ ------- ------- -------|------- ------- ------- -------|
D|-------------------------------|7------------------------------|
A|------------7------------------|------------7------------------|
E|-------------------------------|-------------------------------|


Verse:
G|------- ------- ------- -------|5------ ----5-- ------- 5------|
D|-------------------------------|----------------5--------------|
A|7-----------7-----------7------|-------------------------------|
E|----------------7--------------|-------------------------------|
          E - vil hearted     you,                    you     kept


G|------- ------- ------- -------|------- ------- ------- -------|
D|-------------------------------|9-------7----------------------|
A|8-----------8-----------8------|----------------10------9------|
E|----------------8--------------|-------------------------------|
                                  kid  -  ding    me      a-


G|------- ------- ------- -------|5------ ----5-- ------- 5------|
D|-------------------------------|----------------5--------------|
A|7-----------7-----------7------|-------------------------------|
E|----------------7--------------|-------------------------------|
  long    With your phony     smile,                  and


G|------- ------- ------- -------|------- ------- ------- -------|
D|-------------------------------|9-------7----------------------|
A|8-----------8-----------8------|----------------10------9------|
E|----------------8--------------|-------------------------------|
  with                       your si  -   ren     song.

Refrain:
G|------- ------- ------- -------|------- ------- ------- -------|
D|-------------------------------|7---7---7---7---7---7---7---7--|
A|7---7---7---7---7---7---7---7--|-------------------------------|
E|-------------------------------|-------------------------------|
  Smi     -       ling,       be- gui     -       ling,       you
  ooooooooooooooooooooooooooooooooooooooooooooooooooooooooooooooo

G|------- ------- ------- -------|------- ------- ------- -------|
D|-------------------------------|9-------7----------------------|
A|7---7---7---7---7---7---7---7--|----------------10------9------|
E|-------------------------------|-------------------------------|
  lead    me      on      till    all     hope's  gone,   Per-
  ooooooooooooooooooooooooooooooooooooooooooooooooooooooooooooooo

G|------- ------- ------- -------|------- ------- ------- -------|
D|-------------------------------|7---7---7---7---7---7---7---7--|
A|7---7---7---7---7---7---7---7--|-------------------------------|
E|-------------------------------|-------------------------------|
  sua     -       ding,       de- gra     -       ding,
  ooooooooooooooooooooooooooooooooooooooooooooooooooooooooooooooo

G|------- ------- ------- -------|------- ------- ------- -------|
D|----------------5--------------|7---------------9---\---7------|
A|7------------------------------|-------------------------------|
E|-------------------------------|-------------------------------|
  on      my      knees   I       try     to      please.


G|------- ------- ------- -------|------- ------- ------- -------|
D|-------------------------------|-------------------------------|
A|7------------------------------|-------------------------------|
E|-------------------------------|-------------------------------|
                                                          But I

Bridge:
G|------- ------- ------- -------|------- ------- ----7-- 9p7----|
D|7-------------------5---7---5--|----6---7---8---9-----------9--|
A|----4---5---6---7--------------|7------------------------------|
E|-------------------------------|-------------------------------|
  love you                just the same,                  and I

                            p
G|------- ------- ----10- 1210---|------- ------- ----7-- 9p7----|
D|----9---10--11--12----------12-|----6---7---8---9-----------9--|
A|10-----------------------------|7------------------------------|
E|-------------------------------|-------------------------------|
  want you                to  re- main                    By  my


G|------- ------- ------- -------|------- ------- ----7-- 9p7----|
D|7-------------------4---5---7--|----6---7---8---9-----------9--|
A|----4---5---6---7--------------|7------------------------------|
E|-------------------------------|-------------------------------|
  side,                   then    see                     just how
                              you'll
                            p                               p
G|------- ------- ----10- 1210---|------- ------- ----10- 1210---|
D|----9---10--11--12----------12-|----9---10--11--12----------12-|
A|10-----------------------------|10-----------------------------|
E|-------------------------------|-------------------------------|
  much you                                            mean    to

                            p
G|------- ------- ----14- 1614---|16\---- ------- ------- -------|
D|----13--14--15--16----------16-|-------------------------------|
A|14-----------------------------|-------------------------------|
E|-------------------------------|-------------------------------|
  me.

Re-intro:
G|5------ ------- ------- -------|------- ------- ------- -------|
D|-------------------------------|7------------------------------|
A|------------7------------------|------------7------------------|
E|-------------------------------|-------------------------------|



G|5------ ------- ------- -------|------- ------- ------- -------|
D|-------------------------------|7------------------------------|
A|------------7------------------|------------7------------------|
E|-------------------------------|-------------------------------|


Verse (solo):
G|------- ------- ------- -------|5------ --5-5-- ------- 5------|
D|-------------------------------|----------------5--------------|
A|7-----------7-----------7------|-------------------------------|
E|----------------7--------------|-------------------------------|



G|------- ------- ------- -------|------- ------- ------- -------|
D|-------------------------------|9-------7----------------------|
A|8-----------8-----------8------|----------------10------9------|
E|----------------8--------------|-------------------------------|



G|------- ------- ------- -------|5------ ----5-- ------- 5------|
D|-------------------------------|----------------5--------------|
A|7-----------7-----------7------|-------------------------------|
E|----------------7--------------|-------------------------------|



G|------- ------- ------- -------|------- ------- ------- -------|
D|-------------------------------|9-------7----------------------|
A|8-----------8-----------8------|----------------10------9------|
E|----------------8--------------|-------------------------------|



G|------- ------- ------- -------|------- ------- ------- -------|
D|-------------------------------|7------------------------------|
A|7-----------7---7--------------|------------7------------------|
E|-------------------------------|-------------------------------|



G|5------ ------- ------- -------|------- ------- ------- -------|
D|-------------------------------|7------------------------------|
A|------------7------------------|------------7------------------|
E|-------------------------------|-------------------------------|


Verse:
G|------- ------- ------- -------|5------ ----5-- ------- 5------|
D|-------------------------------|----------------5--------------|
A|7-----------7-----------7------|-------------------------------|
E|----------------7--------------|-------------------------------|
          E - vil hearted     you,                    you     al-


G|------- ------- ------- -------|------- ------- ------- -------|
D|-------------------------------|9-------7----------------------|
A|8-----------8-----------8------|----------------10------9------|
E|----------------8--------------|-------------------------------|
                      ways        try     to      put     me


G|------- ------- ------- -------|5------ ----5-- ------- 5------|
D|-------------------------------|----------------5--------------|
A|7-----------7-----------7------|-------------------------------|
E|----------------7--------------|-------------------------------|
  down    With the things you do,                     and


G|------- ------- ------- -------|------- ------- ------- -------|
D|-------------------------------|9-------7----------------------|
A|8-----------8-----------8------|----------------10------9------|
E|----------------8--------------|-------------------------------|
  words                       you spread  a   -   round   a - gainst

Refrain:
G|------- ------- ------- -------|------- ------- ------- -------|
D|-------------------------------|7---7---7---7---7---7---7---7--|
A|7---7---7---7---7---7---7---7--|-------------------------------|
E|-------------------------------|-------------------------------|
                  me,         a - bout            me,
  ooooooooooooooooooooooooooooooooooooooooooooooooooooooooooooooo

G|------- ------- ------- -------|------- ------- ------- -------|
D|-------------------------------|9-------7----------------------|
A|7---7---7---7---7---7---7---7--|----------------10------9------|
E|-------------------------------|-------------------------------|
  what    would   you             do      with -  out     me?
  ooooooooooooooooooooooooooooooooooooooooooooooooooooooooooooooo

G|------- ------- ------- -------|------- ------- ------- -------|
D|-------------------------------|7---7---7---7---7---7---7---7--|
A|7---7---7---7---7---7---7---7--|-------------------------------|
E|-------------------------------|-------------------------------|
  Smi     -       ling,       be- gui     -       ling,       you
  ooooooooooooooooooooooooooooooooooooooooooooooooooooooooooooooo

G|------- ------- ------- -------|------- ------- ------- -------|
D|-------------------------------|7---------------9--------------|
A|-------------------------------|0------------------------------|
E|0---------------3--------------|-------------------------------|
  lead    me      on      till    all             hope    has


G|------- ------- ------- -------|------- ------- ------- -------|
D|-------------------------------|-------------------------------|
A|7------------------------------|-------------------------------|
E|0------------------------------|-------------------------------|
  gone.

Please e-mail me for any corrections, or write a comment.





Comments


Popular Yardbirds tabs & chords
For Your Love Bass Tabs
Lost Woman Bass Tabs
Farewell Tabs
For Your Love Tabs
Heart Full Of Soul 1 Tabs
Mister Youre A Better Man Than I Tabs
Stroll On 1 Tabs
Train Kept A Rollin' Tabs
Heart Full Of Soul Ukulele
Mr Your A Better Man Than I Ukulele


Song lyrics



↑ Back to top | Tablatures and chords are parodies/interpretations of the original songs. You may use it for private study, scholarship, research or language learning purposes only
© 2014 AZChords.com Contact us | Privacy policy | DMCA | Add/correct tabs | Request tabs | Top 50 tabs