» » »

Tsinelas Tabs (ver.2)

Artists:  A B C D E F G H I J K L M N O P Q R S T U V W X Y Z # 

Tsinelas Tabs (ver.2)

Yano
Rating:
0/5 (0 votes)

Hard to play? Try these video lessons and learn fast.
                yano


STANDARD TUNING : E A D G B e

INTRO :
 use a distortion for a crunchy effect

          A (strum heavily)        D  A
e -/---------------------------------------|
B -/------2--2-2-2-2-2-2-2-2-2-2/s\7--2----|
G -/------2--2-2-2-2-2-2-2-2-2-2/s\7--2----|      repeat this around 3 or 4
D -/------2--2-2-2-2-2-2-2-2-2-2/s\7--2----|      times for the intro, then
A -/------0--0-0-0-0-0-0-0-0-0-0/s\x--0----|      go with the chorus
E -/---------------------------------------|

chorus
       A       D                A         D
e -/-------------------------------------------------|
G -/-2-2-2--s--7-7-7-7-7---s----2-2-2--s--7-7-7------|
B -/-2-2-2--s--7-7-7-7-7---s----2-2-2--s--7-7-7------|   mostly done with
D -/-2-2-2--s--7-7-7-7-7---s----2-2-2--s--7-7-7------|   heavy strummings
A -/-0-0-0--s--5-x-x-x-x---s----0-0-0--s--x-x-x------|
E -/-------------------------------------------------|

       A       D                A         D
       ubos na't gasgas baka mapigtas

       A       D                A         D

verse..

       A  (sustained distortion)        G             A
e -/-----------------------------------------------------------------|
G -/-----------------------------------------------------------------|
B -/-----------------------------------------------------------------|
D -/---7--------------------------------5-------------7--------------|
A -/---7--------------------------------5-------------7--------------|
E -/---5--------------------------------3-------------5--------------|

       una kong naligtas nung kami'y ma tear gas buti't nakaiwas..

       A                  G      A (hold)               A   (do chorus)

 * goes with the next verses and chorus


the semi ad lib goes like this

       A ( strum heavily)             D             A
e -/---9--9--9--9--9--9--9--9---slide-13-13--slide--9---|
G -/---10-10-10-10-10-10-10-10--slide-14-14--slide--10--| repeat this around
B -/---9--9--9--9--9--9--9--9---slide-13-13--slide--9---| 4 or 5 times with
D -/----------------------------------------------------| heavy strumming..
A -/----------------------------------------------------|
E -/----------------------------------------------------|

playing the CD while figuring the strumming pattern would be helpful..


happy bday lee!! papa love you!! may26

the band that never was..
            
Hard to play? Try these video lessons and learn fast. | Correct




comments powered by Disqus
↑ Back to top | Tablatures and chords are parodies/interpretations of the original songs. You may use it for private study, scholarship, research or language learning purposes only