» » »

Senti Tabs (ver.4)

Artists:  A B C D E F G H I J K L M N O P Q R S T U V W X Y Z # 

Senti Tabs (ver.4)

Yano
Rating:
0/5 (0 votes)

Hard to play? Try these video lessons and learn fast.
                INTRO and STANZA:

         A9                  D9/A
e|----------------0--|----------------0--|
B|--------0-----0----|--------3-----3----|
G|------2-----2------|------2-----2------|
D|----2-----2--------|----4-----4--------|
A|--0----------------|--0----------------|
E|-------------------|-------------------|

CHORUS: A - Asus

SOLO:

e|------------------------------------------------------|
B|-----2------3-2--------3-2-3-5-5-3h2-3-3-2-3----------|
G|-2-4----2-4-----2--2-4-----------------------4--------|
D|------------------------------------------------------|
A|------------------------------------------------------|
E|------------------------------------------------------|

e|----------------------------------5-5h7---------------|
B|-----2------3-2----------3-2-3-5--------5--3-2h3------|
G|-2-4----2-4-----2-2--2-4-------------------------2----|
D|------------------------------------------------------|
A|------------------------------------------------------|
E|------------------------------------------------------|
            
Hard to play? Try these video lessons and learn fast. | Correct




comments powered by Disqus
↑ Back to top | Tablatures and chords are parodies/interpretations of the original songs. You may use it for private study, scholarship, research or language learning purposes only