>
 >
Banal Na Aso Santong Kabayo 3

Banal Na Aso Santong Kabayo 3 Guitar Tabs

Yano - Banal Na Aso Santong Kabayo 3 chords, tabs, tablatures, lyrics

Guitar lessons | Add/correct | Request | Top 50 tabs Artists:  A B C D E F G H I J K L M N O P Q R S T U V W X Y Z 0-9

Banal Na Aso Santong Kabayo 3 Guitar Tabs – Yano

CD, Sheet music, Poster

Do you like Banal Na Aso Santong Kabayo 3? Share with your friends now
Bass TabsTabsTabs v2Tabs v3Tabs v4Tabs v5
uning:
(EBGDAE)

Intro:
   Em                   C
E|-------------------|----0----------------|
B|----0---3-------0--|------3--------------|
G|------2-------2----|--------0---------0--|
D|------------2------|------------2--0-----|
A|-------------------|--3------------------|
E|--0----------------|---------------------|

Verse 1:
The same lang s intro pero my Rythm sya
Em-C

Chorus:
Guitar 1
e--------------------------------------|
b--------------------------------------|
g--2-0-----4-0-2-0-4-0-2h3p2--2-0------|
d------2-0------------------------2-0--|
a--------------------------------------|
E--------------------------------------|

e--------------------------------------|
b--------------------------------------|
g--2-0-----4-0-2-0-4-0-2h3p2--2-0------|
d------2-0------------------------2-0--|
a--------------------------------------|
E--------------------------------------|

e---------------------------------------|
b---------------------------------------|
g---2-0-----4-0-2-0-4-0-2-3-2--2-0------|
d-------2-0------------------------2-0--|
a---------------------------------------|
E---------------------------------------|

e---------------------------------------|
b---------------------------------------|
g--2-0-----4-0-2-0-4-0-2h3p2--2-0-------|
d------2-0------------------------2-0---|
a---------------------------------------|
E---------------------------------------|

Guitar 2 (rythm) ung chords ang gmitin nyo s intro?

(REPEAT)

This is the 1st Solo:
Guitar 1:
e--15-12-14-12--------15-12-14-12-------15-12-14-12--|
b--------------15-12--------------15-12--------------|
g----------------------------------------------------|
d----------------------------------------------------|
a----------------------------------------------------|
E----------------------------------------------------|

e--------15----12----14------12----12----14--|
b--15-12----13----13------------13----13-----|
g--------------------------------------------|
d--------------------------------------------|
a--------------------------------------------|
E--------------------------------------------|

e--15-12-14-12--------15-12-14-12-------15-12-14-12--|
b--------------15-12--------------15-12--------------|
g----------------------------------------------------|
d----------------------------------------------------|
a----------------------------------------------------|
E----------------------------------------------------|

e----------15----12----14------12----------14-------|
b----15-12----13----13------------13-12-13----------|
g---------------------------------------------------|
d---------------------------------------------------|
a---------------------------------------------------|
E---------------------------------------------------|

Verse 2:
Pareho lng s Verse 1 ang pattern

Chorus:Stram lang ninyo ung chords

2nd Solo:
Guitar 1
e--------------------------------------------------8---|
b------------------------------5-----7-----8---8-7-----|
g--4---4b----2---2----2--4--5-----5-----5--------------|
d------------------------------------------------------|
a------------------------------------------------------|
E------------------------------------------------------|

e-----------------------------------|
b-----8p7----7p5----4h5-------------|
g---------8------5------4--5--4-----|
d-----------------------------------|
a-----------------------------------|
E-----------------------------------|

e-------------------------------------------------------|
b-------5--4--7b----7--5--4--7-------10b------10b-------|
g--5--4-------------------------------------------------|
d-------------------------------------------------------|
a-------------------------------------------------------|
E-------------------------------------------------------|

e---------------------------------------------------------|
b-----8-10-8---8-------------------10-12-10---------------|
g------------9---9-----7-9-7--/11-------------------------|
d--------------------/9-----------------------------------|
a---------------------------------------------------------|
E---------------------------------------------------------|


e--------10----10b--10b----7h10p7------7h8p7------7----------------|
b--10h12----12---------------------11---------11-----11--10--8--7--|
g------------------------------------------------------------------|
d------------------------------------------------------------------|
a------------------------------------------------------------------|
E------------------------------------------------------------------|

e--------------------------------------------------------------------|
b-----7-------7---7-------7---7-------7-------7----------------------|
g--------------------------------------------------------------------|
d--------------------------------------------------------------------|
a--------------------------------------------------------------------|
E--------------------------------------------------------------------|

Guitar 2: (Rythm)

comment is free ok?





Comments


Popular Yano tabs & chords
Esem Bass Tabs
Dios-Diosan Chords
Esem Chords
Iskolar Ng Bayan Chords
Pera Chords
Banal Na Aso Santong Kabayo Tabs
Banal Na Aso Santong Kabayo 1 Tabs
Kamusta Na Intro Tabs
Dios-diosan Ukulele
Perpekto Ukulele


Song lyrics



↑ Back to top | Tablatures and chords are parodies/interpretations of the original songs. You may use it for private study, scholarship, research or language learning purposes only
© 2014 AZChords.com Contact us | Privacy policy | DMCA | Add/correct tabs | Request tabs | Top 50 tabs