>
 >
Banal Na Aso Santong Kabayo 2

Banal Na Aso Santong Kabayo 2 Guitar Tabs

Yano - Banal Na Aso Santong Kabayo 2 chords, tabs, tablatures, lyrics

Guitar lessons | Add/correct | Request | Top 50 tabs Artists:  A B C D E F G H I J K L M N O P Q R S T U V W X Y Z 0-9

Banal Na Aso Santong Kabayo 2 Guitar Tabs – Yano

CD, Sheet music, Poster

Do you like Banal Na Aso Santong Kabayo 2? Share with your friends now
Bass TabsTabsTabs v2Tabs v3Tabs v4Tabs v5
     Hi guy's I did the best that I can to figured out how to play this song so
please play it too.

Intro

e]--------------------------0-----------------|
B]-----0-----3--------0--------3--------------|
G]--------2--------2--------------0--------0--|  Repeat 6x
D]--------------2--------------------2--0-----|
A]-----------------------3--------------------|
E]--0-----------------------------------------|

e]-----------------------0------------------------------------------0--------|
B]-----0-----3-----0--------3--------------0-0-0-----3--------3-----------3--|
G]--------2-----2--------------0-----0------------2--------2-----------------|
D]--------------------------------2---------------------2--------2-----2-----|
A]--------------------3------------------------------------------------------|
E]--0-----------------------------------0------------------------------------|

Verse 1#

e]--------------------------0---------------------------------------|
B]-----0-----3--------0--------3-----------------0------3--------0--|
G]--------2--------2--------------0-----0--2----------2-------2-----|
D]--------------2--------------------2--------------2------2--------|
A]-----------------------3------------------------------------------|
E]--0-----------------------------------------0---------------------|

e]-----0------------------------------------------0-----------------|
B]--------3-----------------0------3--------0--------3--------------|
G]-----------0--------0----------2-------2--------------0--------0--|
D]--------------2--0-----------2------2--------------------2--0-----|
A]--3------------------------------------------3--------------------|
E]-----------------------0------------------------------------------|

e]---------------------0--------|
B]---------0-----3--------3-----|
G]-------2----2--------------0--|
D]-----2------------------------|
A]------------------3-----------|
E]--0---------------------------|

Chorus

e]-------------------------------------|
B]-------------------------------------|
G]--2-0-----3-0-2-0-4-0-2h3p0-2-0------|
D]------2-0-----------------------2-0--|  Repeat 8x
A]-------------------------------------|
E]-------------------------------------|

1st Solo

e]--15-12-14-12--------             --14----12----14--12-----------14--|
B]--------------15-12--             -----15----12--------12-15-12------|
G]---------------------             -----------------------------------|
D]---------------------  Repeat 3x  -----------------------------------|
A]---------------------             -----------------------------------|
E]---------------------             -----------------------------------|

e]--15-12-14-12--------             --14----12----14--12----------14\--|
B]--------------15-12--             -----15----12--------12-15-12------|
G]---------------------             -----------------------------------|
D]---------------------  Repeat 3x  -----------------------------------|
A]---------------------             -----------------------------------|
E]---------------------             -----------------------------------|

Verse 2#

e]--0----------------0-0-0-----------------|
B]--0----------------0-0-0-----------------|
G]--0----------------0-2-0-----------------|
D]--2-Keep-Strumming-2-2-2-Keep-Strumming--|  Repeat 4x
A]--2----------------2-2-3-----------------|
E]-----------------------------------------|

Repeat Chorus

2nd Solo

e]-----------------------------------8------------------------------------|
B]------------------------------8~~8---8p7---7----------------------------|
G]---------------------9~--9--------9------9---9----7h9-------------9-----|
D]--9~9^--7-9--7-9-10---9---10------------------10-----9~~10-9-10-9-------|
A]------------------------------------------------------------------------|
E]------------------------------------------------------------------------|

e]---------------------------------------------------------------------------|
B]--7-8^-7-----7~--10b-10b-8h10-8-8-------------8-10-12p10------12-15-12-----|
G]--------9-7--------------------9-9\----7-9p7------------12/14--------------|
D]-------------------------------------/9------------------------------------]
A]---------------------------------------------------------------------------|
E]---------------------------------------------------------------------------|

e]------------------------------------------------------------------|
B]--15b-15b~~-12h15-12-11-12h13-12-10-12-11-10----------------------|
G]---------------------------------------------12-11~~11\--11~~11\--|
D]------------------------------------------------------------------|
A]------------------------------------------------------------------|
E]------------------------------------------------------------------|

e]-----------------------------------------------|
B]-----------------------------------------------|
G]--11~~11\--11~~11\--11~11\--11~11\--11~~~-11\--|
D]-----------------------------------------------|
A]-----------------------------------------------|
E]-----------------------------------------------|

Verse 3#

e]--0----------------0-0-0-----------------|
B]--0----------------0-0-0-----------------|
G]--0----------------0-2-0-----------------|
D]--2-Keep-Strumming-2-2-2-Keep-Strumming--|  Repeat 4x
A]--2----------------2-2-3-----------------|
E]-----------------------------------------|

Repeat Chorus

Ending Solo

e]-------------------------------------------------------------------------|
B]-------------------------------------------------------------------------|
G]------7-------7/9-7---------------------7-9--7-----7/9-7--9--------------|
D]--9-7-----7-9~------9--7--5------7-9-7--------9-7--------9-9--9--7-5-----|
A]--------9------------------7-5--7-------------------------------------7--|
E]-------------------------------------------------------------------------|

End

     I hope you liked it guys...

                                                             MOSES MARTINEZ





Comments


Popular Yano tabs & chords
Dong Abay-perpekto Chords
Kaka Chords
Senti Chords
Banal Na Aso Santong Kabayo 1 Tabs
Esem Intro Tabs
Senti 1 Tabs
Senti 3 Tabs
Tsinelas Tabs
Dios-diosan Ukulele
Mercy Ukulele


Song lyrics



↑ Back to top | Tablatures and chords are parodies/interpretations of the original songs. You may use it for private study, scholarship, research or language learning purposes only
© 2014 AZChords.com Contact us | Privacy policy | DMCA | Add/correct tabs | Request tabs | Top 50 tabs