>
 >
Rue Des Cascades

Rue Des Cascades Guitar Tabs

Yann Tiersen - Rue Des Cascades chords, tabs, tablatures, lyrics

Guitar lessons | Add/correct | Request | Top 50 tabs Artists:  A B C D E F G H I J K L M N O P Q R S T U V W X Y Z 0-9

Rue Des Cascades Guitar Tabs – Yann Tiersen

CD, Sheet music, Poster

Do you like Rue Des Cascades? Share with your friends now
Tabs
-------------------------------------------------------------------------------
-------------------------------------------------------------------------------

Tuning: Standard
Capo on II

First Riff
for the intro repeat the low B note a couple of times, then:
e|-------------------------------------------------------------------------------|
B|-3-----2------3-----2------0-----2------0-----2------0-----2------0------2-----|
G|---4-----4------4-----4------4-----4------4-----4------4-----4------4------4---|
D|-----0-----0------0-----0------0-----0------0-----0------0-----0------0------0-|
A|-2------------2------------5------------5------------0------------0------------|
E|-------------------------------------------------------------------------------|

e|---------------------------------------------------------------------------|
B|-0-----0-----0-------------------------------------------------------------|
G|---0-----0-----0---2---0---------------------------------------------------|
D|-----0-----0-----0---0-----------------------------------------------------|
A|---------------------------------------------------------------------------|
E|-0-----------0-------------------------------------------------------------|

Second Riff
e|------------------------------------------------------------------------------|
B|------------------------------------------------------------------------------|
G|-2-----2------2-----2------2-----2------2-----2------0-----0------0-----0-----|
D|---0-----0------0-----0------2-----2------2-----2------0-----0------0-----0---|
A|---------------------------0---0-----0--0---0-----0---------------------------|
E|-2---2-----2--2---2-----2----------------------------0---0-----0--0---0-----0-|

e|---------------------------------------------------------------------------|
B|---------------------------------------------------------------------------|
G|------0---0-------0---0----------------------------------------------------|
D|-4--4---4----4--4---4-----(and back to the start of the riff)--------------|
A|-2-----------2-------------------------------------------------------------|
E|---------------------------------------------------------------------------|

Third Riff
e|---2--2--2--2-------2--2--2--2-----2--2--2--2------------------------------|
B|---3--3--3--3-------3--3--3--3-----2--2--2--2---5~-------------------------|
G|------------------------------------------------4~-------------------------|
D|---------------------------------------------------------------------------|
A|-2----2--2--2--4--5----5--5--5---0----0--0--0------------------------------|
E|---------------------------------------------------0-----------------------|

Fourth Riff
e|---2---2--2-3-5----2---2--2-3-2---0-2-0--0---------------------------------|
B|-----3---------------3---------------------3-2-0---------------------------|
G|--------------------------------------------------0------------------------|
D|-----------------0--------0------------------------------------------------|
A|-2--------2---------------------0--------0---------------------------------|
E|-----------------------------------------------0---------------------------|

Fifth Riff
e|-7--5--3--2--5--3--2--0---2--------2--0-------------------------------------|
B|-----------------------------2--3-------------------------------------------|
G|----------------------------------------------------------------------------|
D|-------0---------------------0----------------------------------------------|
A|-2~----------0----------2----------0----------------------------------------|
E|-------------------0------------------0-------------------------------------|





Comments


Popular Yann Tiersen tabs & chords
Au-dessous Du Volcan Chords
Dust Lane Chords
Le Parapluie Chords
Monochrome Chords
Comptine Dun Autre Ete Tabs
Comptine Dun Autre Ete 1 Tabs
La Valse Damelie Tabs
Dust Lane Ukulele
Le Parapluie Ukulele
Les Jours Tristes Ukulele


Song lyrics



↑ Back to top | Tablatures and chords are parodies/interpretations of the original songs. You may use it for private study, scholarship, research or language learning purposes only
© 2014 AZChords.com Contact us | Privacy policy | DMCA | Add/correct tabs | Request tabs | Top 50 tabs