» » »

Yankovic Weird Al, You Don T Love Me Anymore Tabs (ver.1)

Artists:  A B C D E F G H I J K L M N O P Q R S T U V W X Y Z # 

You Don T Love Me Anymore Tabs (ver.1)

Yankovic Weird Al Tabs
Rating:
0/5 (0 votes)
You Don T Love Me Anymore lessons Tabs too difficult? Try these video lessons and learn fast
                "WEIRD AL" YANKOVIC
YOU DON'T LOVE ME ANYMORE

I TABBED THE SONG FOR A SIX STRING BUT ITS SUPPOSED TO BE PLAYED
ON A TWELVE STRING AND IT SOUNDS ALOT BETTER ON A TWELVE STRING.
ITS CAPOED ON THE FIRST FRET AND ITS BEST IF YOU ROLL ALL THE C
(C#) CHORDS.

THIS IS THE INTRO AND THE BEGINNING TO ALL THE REPEATS:

|-------------------------------------------------------------
|-1--1-1---------1-1--------1--1-1-----s6-5s3-1-----1---------
|-0-------------------------0--------------------0h2-2p0------
|-2--3-0---------3-0--------2--3-0----------------------2-----
|-3----------0h3------s7-5s3-3--------------------------------
|-------------------------------------------------------------

|-------------------------------------------------------------
|-------1-----------1-----------1-----------1-----------1-----
|----0-----0-----4-----4-----0-----0-----2-----2-----2-----2--
|-------------------------------------0-----------0-----------
|-3-----------------------------------------------------------
|-------------0-----------3-----------------------------------
        
|-------------------------------------------------------------
|-------1-----------1-----------1-----------1-----------1-----
|----0-----0-----2-----2-----0-----0-----0-----0-----4-----4--
|-------------0-----------------------------------------------
|-------------------------------------3-----------------------
|-3-----------------------3-----------------------0-----------

|-------------------------------------------------------------
|-------1-----------1-----------1-----------1-----------1-----
|----0-----0-----2-----2-----2-----2-----0-----0-----2-----2--
|-------------0-----------0-----------------------0-----------
|-------------------------------------------------------------
|-3-----------------------------------3-----------------------

|-------------------------------------------------------------
|-------1-----------1-----------1-----------1-----------1-----
|----0-----0-----3-----3-----2-----2-----0-----0-----0-----0--
|-------------------------------------------------------------
|-------------1-----------0-----------3-----------------------
|-3-----------------------------------------------3-----------

|-------------------------
|-------1-----------1-----
|----2-----2-----0-----0--     REPEAT 3 TIMES
|-0-----------------------
|-------------------------
|-------------3-----------

THE 3RD TIME PLAY THIS:

|-------------------------------------------
|-------1-----------1-----------1-----1-----
|----0-----0-----0-----0-----2-----2--0-----
|-------------------------0-----------2-----
|-3-----------------------------------3-----
|-------------3-----------------------------

OUTRO:

                                       RETARD......
|---------------------------------------------------
|-1--1-1---------1-1---------1--1-1-----s6-5s3-1-----
|-0--------------------------0-----------------0------
|-2--3-0---------3-0---------2--3-0------------2------
|-3----------0h3------s7-5s3-3-----------------3-----
|---------------------------------------------------

PLEASE E-MAIL COMMENTS AND/OR CORRECTIONS TO ME (MATT ELLIOTT) AT 
            

comments powered by Disqus
↑ Back to top | Yankovic Weird Al Tabs for You Don T Love Me Anymore. Lyrics for acoustic guitar and electric guitar. Tablatures and chords are parodies/interpretations of the original songs. You may use it for private study, scholarship, research or language learning purposes only