» » »

Y And T, Rockhedz Tabs (ver.1)

Artists:  A B C D E F G H I J K L M N O P Q R S T U V W X Y Z # 

Rockhedz Tabs (ver.1)

Y And T Tabs
 Rating:
4/5 (4 votes)
Rockhedz lessons Tabs too difficult? Try these video lessons and learn fast
1
                TY

Intro:

Gtr 2:
   Am7                                        Bm       Am7            G

Gtr 1:
e|---1---2---3---4---5-6-7-8-9-10\\-----5-5-5-5~\\-------------------------|
B|-1---1---1---1---1----------------1h3-5-7-8-5~\\-------------------------|
G|--------------------------------------------5~\\-------------------------|
D|--------------------------------------------5~\\-------------------------|
A|--------------------------------------------5~\\-------------------------|
E|--------------------------------------------5~\\-------------------------|

Verse 1

Gtr 2:

   G            D            A            E            G         B  
Gtr 1

e|----------------------------------------22pb24r22------------------------|
B|---------------------------------------------------------------22pb24r22-|
G|-22pb24r22-------------------------------------------22pb24r22-----------|
D|--------------22pb24r22--------------------------------------------------|
A|---------------------------22pb24r22-------------------------------------|
E|-------------------------------------------------------------------------|

Play 7x

Chorus

Gtr 2

e|-1-2-3-4-5-6-7-8-9-22pb24r22\20-20pb22r20\18-----------------------------|
B|-------------------------------------------------------------------------|
G|-------------------------------------------------------------------------|
D|-------------------------------------------------------------------------|
A|-------------------------------------------------------------------------|
E|-------------------------------------------------------------------------|

Solo 1:

Gtr 1:

e|-------------------------1h2p1h3p1h4p1h5--------------------------------|
B|-------22b24------------------------------------------------------------|
G|-------------13p12h15p12-----------------12b13r12b14r12b15r12-------12\-|
D|---3----------------------------------------------------------------12\-|
A|-2------------------------------------------------------------12b13-12\-|
E|------------------------------------------------------------------------|

e|-2-3-4-5-6-7-8-9-10-12pb14r12\x-12/22b24-20-12h13h15h17h18h20\\\\--|
B|-------------------------------------------------------------------|
G|-------------------------------------------------------------------|
D|-------------------------------------------------------------------|
A|-------------------------------------------------------------------|
E|-------------------------------------------------------------------|

e|-6-7-8-9-10\\\\--2-3-4-5-6-7-8-9-10~~~~~~~~~~~~~~~~~~~~~~~~-|
B|---------------------------------10~~~~~~~~~~~~~~~~~~~~~~~~-|
G|---------------------------------10~~~~~~~~~~~~~~~~~~~~~~~~-|
D|------------------------------------------------------------|
A|------------------------------------------------------------|
E|------------------------------------------------------------| 

Play verse again

Play chorus again

Solo 2:

e|-----------------------2-----------22b24r22\----------------|
B|-----------------------2---------22---------22\-------------|
G|-----------------------2-------22--------------22\----------|
D|-----------------------2-----22-------------------22\-------|
A|-22b24r22p20h22b24r22\-2---22------------------------22\----|
E|-----------------------2-22---------------------------22\---|

Play verse again
Play chorus again
Play Solo 1 as outro
Then play

e|-----------------------2-----------22b24r22\----------------|-22---5-|
B|-----------------------2---------22---------22\-------------|-22---5-|
G|-----------------------2-------22--------------22\----------|-22---5-|
D|-----------------------2-----22-------------------22\-------|-22---5-|
A|-22b24r22p20h22b24r22\-2---22------------------------22\----|-22-0-5-|
E|-----------------------2-22---------------------------22\---|-22-0-5-|
            
Submit corrections

comments powered by Disqus
↑ Back to top | Y And T Tabs for Rockhedz. Lyrics for acoustic guitar and electric guitar. 1 Tablatures and chords are parodies/interpretations of the original songs. You may use it for private study, scholarship, research or language learning purposes only