>
 >
Open Fire

Open Fire Guitar Tabs

Y And T - Open Fire chords, tabs, tablatures, lyrics

Guitar lessons | Add/correct | Request | Top 50 tabs Artists:  A B C D E F G H I J K L M N O P Q R S T U V W X Y Z 0-9

Open Fire Guitar Tabs – Y And T

CD, Sheet music, Poster

Do you like Open Fire? Share with your friends now
Tabs
----------------------------------------------------------------------------
			     OPEN FIRE - Y & T
----------------------------------------------------------------------------

Tuning: standard tuning

| h  hammer-on
| p  pull-off
| ~  vibrato
| b  bend
| .  mute note
| ps pick scrape


Use distortion

Riff 1: don't play the chords between brackets! 
e|--------------------------------------------------------------------------|
B|--------------------------------------------------------------------------|
G|--------------------------------------------------------------------------|
D|--(3-5)-5-----3-5--3---3------3-5-5------3-5--7----8----------------------|
A|--(3-5)-5-----3-5--1-0-1------3-5-5------3-5--5----6----------------------|
E|--(1-3)-3-----1-3-------------1-3-3------1-3------------------------------|

e|--------------------------------------------------------------------------|
B|--------------------------------------------------------------------------|
G|--------------------------------------------------------------------------|
D|--3-5-5-----3-5--3---3-------3-5---7-----5---3--7--5----------------------|
A|--3-5-5-----3-5--1-0-1-------3-5---5-----3---1--7--5----------------------|
E|--1-3-3-----1-3--------------1-3----------------5--3-----stop-------------|


Riff 2 (23"): guitar 1 adds Fill 1 at the * mark
e|--------------------------------------------------------------------------|
B|--------------------------------------------------------------------------|
G|----------------------------------------------------------------*---------|
D|--5--------5---------5-----------3---5--------5------------5--------------|
A|--3--3-3-3-3--3-3-3--5-----------1---3--3-3-3-3--3-3-3-----5--------------|
E|---------------------3-3-3-3-3-3-----------------------6-5-3--3-3-3-3-3---|
       . . .    . . .    . . . . .        . . .    . . . . .    . . . . .

e|--------------------------------------------------------------------------|
B|--------------------------------------------------------------------------|
G|--------------------------------------------------------------------------|
D|--5--------5---------5-----------3---5--------5---------7-----------------|
A|--3--3-3-3-3--3-3-3--5-----------1---3--3-3-3-3--3-3-3--5-----------------|
E|---------------------3-3-3-3-3-3------------------------------------------|
       . . .    . . .    . . . . .        . . .    . . .

now, guitar 1 adds Fill 2 at the ** mark
e|--------------------------------------------------------------------------|
B|--------------------------------------------------------------------------|
G|----------------------------------------------------------------**--------|
D|--5--------5---------5-----------3---5--------5------------5--------------|
A|--3--3-3-3-3--3-3-3--5-----------1---3--3-3-3-3--3-3-3-----5--------------|
E|---------------------3-3-3-3-3-3-----------------------6-5-3--3-3-3-3-3---|
       . . .    . . .    . . . . .        . . .    . . . . .    . . . . .

e|--------------------------------------------------------------------------|
B|--------------------------------------------------------------------------|
G|--------------------------------------------------------------------------|
D|--5--------5---------5-----------3---5--------5---------7------5--7-------|
A|--3--3-3-3-3--3-3-3--5-----------1---3--3-3-3-3--3-3-3--5------3--5-------|
E|---------------------3-3-3-3-3-3------------------------------------------|
       . . .    . . .    . . . . .        . . .    . . .


Fill 1:                Fill 2:
e|-------------------|------------------------------------------------------|
B|--11--13--11~------|---11-13----------------------------------------------|
G|-------------------|---------12h15p12h15p12h15~---------------------------|
D|-------------------|------------------------------------------------------|
A|-------------------|------------------------------------------------------|
E|-------------------|------------------------------------------------------|


Riff 1 (1'07"): play the chords between brackets!


Riff 2' (1'28): half of Riff 2, add Fills 3 and 4 at the marks
		(note the different ending as well!)
e|--------------------------------------------------------------------------|
B|--------------------------------------------------------------------------|
G|----------------------------------------------------------------*---------|
D|--5--------5---------5-----------3---5--------5------------5--------------|
A|--3--3-3-3-3--3-3-3--5-----------1---3--3-3-3-3--3-3-3-----5--------------|
E|---------------------3-3-3-3-3-3-----------------------6-5-3--3-3-3-3-3---|
       . . .    . . .    . . . . .        . . .    . . . . .    . . . . .

e|--------------------------------------------------------------------------|
B|--------------------------------------------------------**----------------|
G|--------------------------------------------------------------------------|
D|--5--------5---------5-----------3---5--------5---------7---5-7--5-7--5-7-|
A|--3--3-3-3-3--3-3-3--5-----------1---3--3-3-3-3--3-3-3--5---3-5--3-5--3-5-|
E|---------------------3-3-3-3-3-3------------------------------------------|
       . . .    . . .    . . . . .        . . .    . . .

Fill 3:                            Fill 4:
e|---------11h14p11h14p11h14~----|-------------10~------22~-----------------|
B|---11-13-----------------------|------------------------------------------|
G|-------------------------------|-------7~---------------------------------|
D|-------------------------------|------------------------------------------|
A|-------------------------------|--5~--------------------------------------|
E|-------------------------------|------------------------------------------|


Riff 1 (1'56"): play the chords between brackets, no stop at the end!


Riff 3 (2'17"): background for solo 1
e|--------------------------------------------------------------------------|
B|--------------------------------------------------------------------------|
G|--------------------------------------------------------------------------|
D|--3-5-5-----------3-5-5-----------3-5-5---------------5-----7----3--5-----|
A|--3-5-5-----------3-5-5-----------3-5-5---------------3-----5----3--5-----|
E|--1-3-3--3-3-3-3--1-3-3--3-3-3-3--1-3-3--3-3-3-3-3-3-------------1--3-----|
           . . . .         . . . .         . . . . . .


Riff 4 (2'30"): background for solo 2. Don't play the chords between brackets
e|--------------------------------------------------------------------------|
B|--------------------------------------------------------------------------|
G|--------------------------------------------------------------------------|
D|--(5-7)-7----------5-7--5---5-----5-7-7----------5-7--9-----10------------|
A|--(5-7)-7----------5-7--3-0-3-----5-7-7----------5-7--7------8------------|
E|--(3-5)-5--5-5-5-5-3-5------------3-5-5--5-5-5-5-3-5----------------------|
             . . . .                       . . . .

e|--------------------------------------------------------------------------|
B|--------------------------------------------------------------------------|
G|----------------------------------------------------2---------------------|
D|--5-7-7----------5-7--5---5-----5-7--9-----7---5-4--2---------------------|
A|--5-7-7----------5-7--3-0-3-----5-7--7-----5---3-2--0---------------------|
E|--3-5-5--5-5-5-5-3-5------------3-5---------------------------------------|
           . . . .


Riff 5 (2'51"): background for ending of solo 2
e|--------------------------------------------------------------------------|
B|--------------------------------------------------------------------------|
G|--------------------------------------------------------------------------|
D|--9----7----5----4----7----5---5--7---------------------------------------|
A|--7----5----3----2----7----5---5--7---------------------------------------|
E|----------------------5----3---3--5---------------------------------------|


Riff 6 (2'59"): guitar 1 adds Fill 5 and 6 at the marks
e|--------------------------------------------------------------------------|
B|--------------------------------------------------------------------------|
G|------------------------------------------------------------*-------------|
D|--7--------7--------7------------5---7--------7---------7-----------------|
A|--5--5-5-5-5-5-5-5--7------------3---5--5-5-5-5--5-5-5--7-----------------|
E|--------------------5-5-5-5-5-5-------------------------5--5-5-5-5-5------|
       . . .   . . .    . . . . .         . . .    . . .     . . . . .

e|--------------------------------------------------------------------------|
B|--------------------------------------------------------**----------------|
G|--------------------------------------------------------------------------|
D|--7--------7--------7------------5---7--------7---------9---7-9--7-9--7-9-|
A|--5--5-5-5-5-5-5-5--7------------3---5--5-5-5-5--5-5-5--7---5-7--5-7--5-7-|
E|--------------------5-5-5-5-5-5-------------------------------------------|
       . . .   . . .    . . . . .         . . .    . . .     

Fill 5:                           Fill 6:
e|----------15h18p15h18p15h18~--|------------------------19~----------------|
B|---13-15----------------------|----------------12~------------------------|
G|------------------------------|-------------------------------------------|
D|------------------------------|---------9~--------------------------------|
A|------------------------------|---7~--------------------------------------|
E|------------------------------|-------------------------------------------|


Riff 4 (3'27"): play the chords between brackets. Don't play the palm muted
		notes!

Riff 7 (3'47"): background for solo 3. Play this 4 times
e|--------------------------------------------------------------------------|
B|--------------------------------------------------------------------------|
G|--------------------------------------------------------------------------|
D|--5-7-7-------------------------------------------------------------------|
A|--5-7-7-------------------------------------------------------------------|
E|--3-5-5--5-5-5-5----------------------------------------------------------|
           . . . .

Riff 5 (3'58")


That's it! Enjoy!

============================================================================

============================================================================





Comments


Popular Y And T tabs & chords
Anytime At All Bass Tabs
Contagious Bass Tabs
On With The Show Chords
Dont Wanna Lose Tabs
From The Moon Tabs
From The Moon 3 Tabs
Hang Em High 1 Tabs
I Believe In You Tabs
Rockhedz Tabs
Summertime Girls Intro Tabs


Song lyrics



↑ Back to top | Tablatures and chords are parodies/interpretations of the original songs. You may use it for private study, scholarship, research or language learning purposes only
© 2014 AZChords.com Contact us | Privacy policy | DMCA | Add/correct tabs | Request tabs | Top 50 tabs