>
 >
Midnight In Tokyo

Midnight In Tokyo Guitar Tabs

Y And T - Midnight In Tokyo chords, tabs, tablatures, lyrics

Guitar lessons | Add/correct | Request | Top 50 tabs Artists:  A B C D E F G H I J K L M N O P Q R S T U V W X Y Z 0-9

Midnight In Tokyo Guitar Tabs – Y And T

CD, Sheet music, Poster

Do you like Midnight In Tokyo? Share with your friends now
Tabs
----------------------------------------------------------------------------
			     MIDNIGHT IN TOKYO - Y & T	
----------------------------------------------------------------------------

Tuning: standard tuning

| h  hammer-on
| p  pull-off
| ~  vibrato
| b  bend
| .  mute note
| ps pick scrape


Use distortion


Intro riff (11"): play this 2 times (second time don't play the stop)

e|--------------------------------------------------------------------------|
B|----10---------10---------10-----------------------8~--8-10-11~-----------|
G|--7----10~---7----10~---7----10~--9-10p9p7~---7-10------------------------|
D|--------------------------------------------------------------------------|
A|--------------------------------------------------------------------------|
E|--------------------------------------------------------------------------|

e|--------------------------------------------------------------------------|
B|--11p10p8h10~+stop--------------------------------------------------------|
G|--------------------------------------------------------------------------|
D|--------------------------------------------------------------------------|
A|--------------------------------------------------------------------------|
E|--------------------------------------------------------------------------|

after second time play this:
e|--------------------------------------------------------------------------|
B|--10h11p10\8h10p8\6h8p6\5h6p5\3~------------------------------------------|
G|--------------------------------------------------------------------------|
D|--------------------------------------------------------------------------|
A|--------------------------------------------------------------------------|
E|--------------------------------------------------------------------------|


Riff 1 (51"):
e|--------------------------------------------------------------------------|
B|--------------------------------------------------------------------------|
G|--2-5-7--7-7--7--7-7--7--7-7--7-5-3--3-3--3--3-3--3--3-3--3-2-------------|
D|--0-3-5--5-5--5--5-5--5--5-5--5-3-1--1-1--1--1-1--1--1-1--1-0-------------|
A|--------------------------------------------------------------------------|
E|--------------------------------------------------------------------------|
	   . .     . .     . .         . .     . .     . .

e|--------------------------------------------------------------------------|
B|--------------------------------------------------------------------------|
G|--------------------------------------------------------------------------|
D|--5--5-5--5--5-5---7--7-7--7--7-7-----------------------------------------|
A|--5--5-5--5--5-5---7--7-7--7--7-7-----------------------------------------|
E|--3--3-3--3--3-3---5--5-5--5--5-5-----------------------------------------|
       . .     . .      . .     . .


Riff 2 (1'02"): guitar 1 plays the chords, guitar 2 plays the notes on the
		B and G-string 
e|--------------------------------------------------------------------------|
B|-------6----------6----------6---------6----------6-----------6-----------|
G|-----7---7------7---7------7---7-----7---7------7---7-------7---7---------|
D|--7----------5----------3----------2----------5-----------3---------7-----|
A|--5hold------3hold------1hold------0hold------5-----------3---------5hold-|
E|----------------------------------------------3hold-------1hold-----------|


Fill (1'17"): here, the bass guitar does all the work, the guitar simply 
	plays this little fill. Listen to the song to get the timing right!
	Play this 3 times then------------------- (everything clean)
						 |
e|-----------------------------------------------|-----10-------------------|
B|--6--6------6--6------6--6------6--6-----------|---6----------------------|
G|--7--7stop--7--7stop--7--7------7--7-----------|-7------------------------|
D|----------------------8--8stop--8--8stop----------------------------------|
A|--------------------------------------------------------------------------|
E|--------------------------------------------------------------------------|


Riff 3 (1'42"):
e|--------------------------------------------------------------------------|
B|--------------------------------------------------------------------------|
G|--------------------------------------------------------------------------|
D|--5-7-8------8--7-------7-9--3-----5--------10-7-7-7-7--10-7-7-7-7--------|
A|--5-7-8------8--5hold---5-7--3-----5---------8-5-5-5-5---8-5-5-5-5--------|
E|--3-5-6hold--6---------------1hold-3hold----------------------------------|
						     . .         . .

e|--------------------------------------------------------------------------|
B|--------------------------------------------------------------------------|
G|--------------------------------------------------------------------------|
D|--8--------7--------3-------7---------------------------------------------|
A|--8--------5hold----3-------7---------------------------------------------|
E|--6hold-------------1hold---5hold+stop------------------------------------|


Riff 1' (2'07"): play this 2 times (chord between brackets only first time)
e|--------------------------------------------------------------------------|
B|--------------------------------------------------------------------------|
G|---7--7-7--7--7-7--7--7-7--7-5-3--3-3--3--3-3--3--3-3--3-2----------------|
D|---5--5-5--5--5-5--5--5-5--5-3-1--1-1--1--1-1--1--1-1--1-0----------------|
A|--------------------------------------------------------------------------|
E|--------------------------------------------------------------------------|
	. .     . .     . .         . .     . .     . .

e|--------------------------------------------------------------------------|
B|--------------------------------------------------------------------------|
G|--------------------------------------------------------------------------|
D|--5--5-5--5--5-5---7--7-7--7--7-7---7------(7----)------------------------|
A|--5--5-5--5--5-5---7--7-7--7--7-7---5hold--(7----)------------------------|
E|--3--3-3--3--3-3---5--5-5--5--5-5----------(5hold)------------------------|
       . .     . .      . .     . .


Fill (2'35")

Riff 3 (2'58")

Riff 1' (3'23")

Riff 2 (3'45")

Intro riff (4'01") 


Riff 5 (4'38"): play this 2 times, but the second time replace the part 
		between brackets by the D-chord

e|--------------------------------------------------------------------------|
B|----------6----------------6----------------1----------------1------------|
G|------7-----7---7------7-----7---7------3-----3---3------3-----3---3------|
D|----7---7-----7------7---7-----7------3---3-----3------3---3-----3--------|
A|--5----------------5----------------1----------------1--------------------|
E|--------------------------------------------------------------------------|
							       
							       D
e|--------------------------------------------------------------------------|
B|----------3---------------(5---------------6)-----------------------------|
G|------------3---------------(6---------7-----7)--------------7------------|
D|------5-------5-------7-------(7-----7---7-----7)------------5hold--------|
A|----5---5-----------7---7-----------5------------5-0hold)-----------------|
E|--3---------------5-------------------------------------------------------|


That's it! Enjoy!


============================================================================

============================================================================





Comments


Popular Y And T tabs & chords
Contagious Bass Tabs
Contagious Tabs
Contagious 1 Tabs
Forever Intro Tabs
Hurricane Tabs
Mean Streak Tabs
Open Fire Tabs
Replace Tabs
Rockhedz Tabs
Winds Of Change Intro Tabs


Song lyrics



↑ Back to top | Tablatures and chords are parodies/interpretations of the original songs. You may use it for private study, scholarship, research or language learning purposes only
© 2014 AZChords.com Contact us | Privacy policy | DMCA | Add/correct tabs | Request tabs | Top 50 tabs