» » »

Y And T, Mean Streak Tabs (ver.2)

Artists:  A B C D E F G H I J K L M N O P Q R S T U V W X Y Z # 

Mean Streak Tabs (ver.2)

Y And T Tabs
Rating:
0/5 (0 votes)
Mean Streak lessons Tabs too difficult? Try these video lessons and learn fast
                
Standard Tuning. This tab will hopefully give people a good idea of how to play the 
guitar parts of this song. Appologies as i do not have time to tab out the solo.

.= Palm Mute
~= Sustain/Vibrato
h= hammer on
p= pull off

Intro Riff
|-------------------------------|-----------------------------------------|
|-------------------------------|-----------------------------------------|
|-------------------------------|-----------------------------------------|
|-------4-----2-----------------|-------4-----2---------------------------|
|-4------------------5--4~~-----|-2----------------5----4----2------------|
|-2--2-----2-----2--------------|-0---0----0----0----0----0-----0--5--4--0|
     .     .     .                    .    .    .    .    .     .

The intro is this played through once then the first part repeated. There is a pause for 
2 bars (eight beats). This is then played through once more repeating the first part 
after. The final two bars of the intro is as follows:


|-------------------------------|
|-------------------------------|
|-------------------------------|
|-------4-----2-----------------|
|-2------------------5--4~~-----|
|-0--0-----0-----0--------------|
     .     .     .

OR

|------------------------------------------|
|------------------------------------------|
|------------------------------------------|
|-------4-----2-----------2----------------|
|-2------------------5----0--4------2--4---|
|-0--0-----0-----0-----------2------0--2---|
     .     .     .

Both parts wwork however its up to you weather you want to play the lead or accent the 
rhythm (probably best if you are the only guitarist in a band)

Verse

|----------------------------|------------------------------|
|----------------------------|------------------------------|
|----------------------------|------------------------------|
|-------------------4--------|-------------------4--------2-|
|-4-----------------2----2---|-4-----------------2----2---0-|
|-2-2222222222222--------0---|-2-2222222222222--------0-----|
    .............                .............

The rhythym is up to you really, as long as your playing these chords. The last part of 
the verse does not move to an E5 after the B5, it just stays on the B5 as follows.

|----------------------------|
|----------------------------|
|----------------------------|
|-------------------4---4-4--|
|-4-----------------2---2-2--|
|-2-2222222222222------------|
    .............

Pre-Chorus

|-------------------------|         |----------------|
|-------------------------|         |----------------|
|-------------------------|         |----------------|
|-6--------------9--8-----|         |-6---4---2------|
|-4-44444444444--7--6--9--|         |-4---2---0---6--|
|----------------------7--| x3 then |-------------4--|

Chorus
|-------------------------------|         |--------------------|
|-------------------------------|         |--------------------|
|-------------------------------|         |--------------------|
|-------------------------9---7-|         |-4------------6--6--|
|-7--4--------------------7---5-|         |-2------------4--4--|
|-5--2-222222--2-4-5-4-2--------| x3 then |--------------------|
       ......

Againt the rhythm on the F# is up to you.

Build Up (After the inro riff after the second chorus)

|----------------------------|         |---------------------------|
|----------------------------|         |---------------------------|
|-------------6-7-6h7p6------|         |---------------------------|
|-7------9--------------9-7--|         |-7--------6--4--2----------|
|-5------7-------------------|         |-5--------4--2--0--6--2-4--|
|----------------------------| x3 then |-------------------4--0-2--|

Solo Backing

|-------------------|
|-------------------|
|-------------------|
|-----------4--6--4-|
|-6---------2--4--2-|
|-4-444444----------| x4 then

|---------------|---------------|---------------|---------------|
|---------------|---------------|---------------|---------------|
|---------------|---------------|---------------|---------------|
|-3--5-------8--|-3--5--6-----8-|-3--5-------8--|-3--5--6~~-----|
|-1--3--3--4-6--|-1--3--4--4--6-|-1--3--3--4-6--|-1--3--4~~-----|
|-------1--2`---|----------2----|-------1--2`---|---------------|

The A# and C can be played in different positions as the D# however playing a few 
diffenet variations this seems to be the best sounding way of playing this.

Outro

|----------|                      |-----|
|----------|                      |-----|
|----------|                      |-----|
|----------|                      |-----|
|-7--4-----|                      |-2~~-|
|-5--2-222-| x3 then end on an E5 |-0~~-|
       ...

Order

Intro
Verse
Pre-Chorus
Chorus
Verse
Pre-Chorus
Chorus
Intro
Build Up
Solo Backing
Intro
Chorus
outro
            

comments powered by Disqus
↑ Back to top | Y And T Tabs for Mean Streak. Lyrics for acoustic guitar and electric guitar. Tablatures and chords are parodies/interpretations of the original songs. You may use it for private study, scholarship, research or language learning purposes only