>
 >
Hurricane

Hurricane Guitar Tabs

Y And T - Hurricane chords, tabs, tablatures, lyrics

Guitar lessons | Add/correct | Request | Top 50 tabs Artists:  A B C D E F G H I J K L M N O P Q R S T U V W X Y Z 0-9

Hurricane Guitar Tabs – Y And T

CD, Sheet music, Poster

Do you like Hurricane? Share with your friends now
Tabs
----------------------------------------------------------------------------
                             HURRICANE - Y & T
----------------------------------------------------------------------------

Tuning: standard tuning

| h  hammer-on
| p  pull-off
| ~  vibrato
| b  bend
| .  mute note
| ps pick scrape

Use distortion


Riff 1: repeat this 9 times
e|--------------------------------------------------------------------------|
B|--------------------------------------------------------------------------|
G|--------------------------------------------------------------------------|
D|-------------------------------------------------2---4--------------------|
A|-------------------------------------------------2---2--------------------|
E|--0-2--2-2-2----0-2--2-2-2----0-2--2-2-2-2-2-----0------------------------|
         . . .         . . .         . . . . .

Riff 2 (47")
e|--------------------------------------------------------------------------|
B|--------------------------------------------------------------------------|
G|-----------------2-----------2----------------------2---------------------|
D|--6--------------2-----4-----2---------------6------2------4-4-4-4--------|
A|--4---stop-------0-----4-----0---------------4------0------2-2-2-2stop----|
E|------------ps---------2--------2-2-2-2-2---------------------------------|


Riff 1 (1'07"): repeat 6 times

Riff 2 (1'39"): don't play the stop at the end, but replace by Riff 3

Riff 3 (1'56"):
e|--------------------------------------------------------------------------|
B|--------------------------------------------------------------------------|
G|--------------------------------------------------------------------------|
D|--4--5--6--5------6-------------------------------------------------------|
A|--2--3--4--5hold--6hold---------------------------------------------------|
E|--------------------------------------------------------------------------|


Solo 1 (1'59"): play Riff 1 as background (6 times)


Harmony (2'30"): play Riff 4 as background

e|--------------------------------------------------12b---10----------------|
B|--------------------------------------------10-12----------12-------------|
G|-------------------11------12hold-----11-12-------------------12----------|
D|--9hold----9-11-12----12-9---------------------------------------9~-------|
A|---------9----------------------------------------------------------------|
E|--------------------------------------------------------------------------|

e|-------------------------------------------12b--10----12b-12b-------------|
B|-------------------------------------10-12---------12---------------------|
G|-------------11------12hold----11-12--------------------------------------|
D|-----9-11-12----12-9------------------------------------------------------|
A|---9----------------------------------------------------------------------|
E|--------------------------------------------------------------------------|

e|--------------------------------------------------12b---10----------------|
B|--------------------------------------------10-12----------12-------------|
G|-------------------11------12hold-----11-12-------------------12----------|
D|--9hold----9-11-12----12-9---------------------------------------9~-------|
A|---------9----------------------------------------------------------------|
E|--------------------------------------------------------------------------|

e|--------------------------------------------------------------------------|
B|--------------------------------------------------------------------------|
G|-------------11------12hold-----12hold-13b--------------------------------|
D|-----9-11-12----12-9------------------------------------------------------|
A|---9----------------------------------------------------------------------|
E|--------------------------------------------------------------------------|


Riff 4: play this 4 times (chord between brackets only after the 4th time)
e|--------------------------------------------------------------------------|
B|--------------------------------------------------------------------------|
G|--------------------------------------------------------------------------|
D|---4-----5----(6)---------------------------------------------------------|
A|---2-----5----(6)---------------------------------------------------------|
E|---------3----(4)---------------------------------------------------------|


Solo 2 (2'41"): play Riff 1 as background (2 times)

Riff 1 (2'52"): play 2 times

Riff 2 (3'03")

and finish with this
e|--------------------------------------------------------------------------|
B|--------------------------------------------------------------------------|
G|--------------------------------------------------------------------------|
D|---2----------------------------------------------------------------------|
A|---2-4--------------------------------------------------------------------|
E|---0-2stop----------------------------------------------------------------|


That's it! Enjoy!

============================================================================

============================================================================





Comments


Popular Y And T tabs & chords
Anytime At All Bass Tabs
Contagious Bass Tabs
On With The Show Chords
Dont Stop Runnin Tabs
Forever Tabs
From The Moon Tabs
From The Moon 3 Tabs
I Believe In You Tabs
Open Fire Tabs
Rescue Me Tabs


Song lyrics



↑ Back to top | Tablatures and chords are parodies/interpretations of the original songs. You may use it for private study, scholarship, research or language learning purposes only
© 2014 AZChords.com Contact us | Privacy policy | DMCA | Add/correct tabs | Request tabs | Top 50 tabs