>
 >
From The Moon 1

From The Moon 1 Guitar Tabs

Y And T - From The Moon 1 chords, tabs, tablatures, lyrics

Guitar lessons | Add/correct | Request | Top 50 tabs Artists:  A B C D E F G H I J K L M N O P Q R S T U V W X Y Z 0-9

From The Moon 1 Guitar Tabs – Y And T

CD, Sheet music, Poster

Do you like From The Moon 1? Share with your friends now
TabsTabs v2Tabs v3
-----------------------------------------------------------------------------
                             From the Moon - Y & T (GUITAR)
                       
-----------------------------------------------------------------------------

Tuning: Standard

=============================================================================
                          

Guitar 1



      E   E   E   Q      Q.          E   E   E   E.    S  Q.       
E||------------------------------|--------------------------------|
B||------------------------------|--------------------11----------|
G||--------------12b----12~------|--------------12b------12~------|
D||----------12------------------|----------13--------------------|
A||--10--13----------------------|--10--13------------------------|
E||------------------------------|--------------------------------|


                      |---3---|              |----3---|                
   E   E   E   Q      E   E   E   E      E   E    E   E   H        E   
---------------------11--10----------|--------------------------------|
--------------13b------------13--10--|---L--13b--13-------------------|
----------12-------------------------|---------------12--11-----------|
--10--13-----------------------------|--------------------------------|
-------------------------------------|--------------------------------|
-------------------------------------|--------------------------------|


   E   E   E   Q      Q.          E   E   E   E.    S  Q.       
------------------------------|--------------------------------|
------------------------------|--------------------11----------|
--------------12b----12~------|--------------12b------12~------|
----------12------------------|----------13--------------------|
--10--13----------------------|--10--13------------------------|
------------------------------|--------------------------------|


                      |---3---|              |----3---|         |---3---|       
   E   E   E   Q      E   E   E   E      E   E    E   E   Q     E   E   E   E   
---------------------11--10----------|-----------------------------------------|
--------------13b------------13--10--|---L--13b--13----------------10--11------|
----------12-------------------------|---------------12--11----12----------12--|
--10--13-----------------------------|-----------------------------------------|
-------------------------------------|-----------------------------------------|
-------------------------------------|-----------------------------------------|


   W                        
--------------------|-----||
--------------------|-----||
---L----------------|-----||
--------------------|-----||
--------------------|-----||
--------------------|-----||


============================================================================
============================================================================
============================================================================



Guitar 2



                                                            |---3---|        
             E  E  E  E.   S Q.          E   E   E   Q      E   E   E   E    
E||-------|--------------------------|--------------------------------------|
B||-------|----------------8---------|---------------------11--10-----------|
G||-------|-----------8b-----8~------|--------------12b------------12--11~--|
D||-------|-----5--8-----------------|----------13--------------------------|
A||-------|--6-----------------------|--10--13------------------------------|
E||-------|--------------------------|--------------------------------------|


       |----3---|                                                
   E   E    E   E   H         E      E   E   E   Q      Q.       
---------------------------------|------------------------------|
---------------------------------|------------------------------|
---L--12b--12--------------------|------------------------------|
---------------13--12~-----------|--------------13b----13~------|
---------------------------------|------10--13------------------|
---------------------------------|--10--------------------------|


                                                 |---3---|        
  E  E  E  E.   S Q.          E   E   E   Q      E   E   E   E    
--------------------------|--------------------------------------|
----------------8---------|---------------------11--10-----------|
-----------8b-----8~------|--------------12b------------12--11~--|
-----5--8-----------------|----------13--------------------------|
--6-----------------------|--10--13------------------------------|
--------------------------|--------------------------------------|


       |----3---|          |---3---|                                     
   E   E    E   E   Q      E   E   E   E      W                          
------------------------------------------|--------------------|-------||
------------------------------------------|--------------------|-------||
---L--12b--12-----------------11--12------|--------------------|-------||
---------------13--12~----12----------12--|---L----------------|-------||
------------------------------------------|--------------------|-------||
------------------------------------------|--------------------|-------||



============================================================================
============================================================================
============================================================================

Guitar 3



             H.           E  E     H.           E  E     E  Q    H        E   
E||-------|---------------------|---------------------|----------------------|
B||-------|---------------------|---------------------|----------------------|
G||-------|---------------------|---------------------|----------------------|
D||-------|---------------------|---------------------|----------------------|
A||-------|------------------3--|--L------------L--5--|--L--6----5-----------|
E||-------|---------------------|---------------------|-------------------3--|


  H        E  S S S S E     H        E  Q    E     H.           E  E   
-------------------------|----------------------|---------------------|
-------------------------|----------------------|---------------------|
--------------7-6-5-4-3--|--L--------L--3-------|---------------------|
--------------5-4-3-2-1--|--L--------L--0----5--|---------------------|
--------------5-4-3-2-1--|--L----------------3--|--L------------L--5--|
--L--------L-------------|----------------------|---------------------|


  E  Q    H        E     W                          
----------------------|-------------------|-------||
----------------------|-------------------|-------||
----------------------|-------------------|-------||
----------------------|-------------------|-------||
--L--6----5-----------|-------------------|-------||
-------------------3--|--L----------------|-------||



============================================================================
============================================================================
============================================================================


                               
Guitar 4



                                             E  E  E   E   E   E   Q      
E||-------|-------|-------|-------|-------|-----------13--11-------------|
B||-------|-------|-------|-------|-------|-------------------11---------|
G||-------|-------|-------|-------|-------|------------------------------|
D||-------|-------|-------|-------|-------|-----------------------13~----|
A||-------|-------|-------|-------|-------|------------------------------|
E||-------|-------|-------|-------|-------|------------------------------|


                                         |----3---|         |---3---|       
  E  E  E   E   E   E   S  S  E      E   E    E   E   Q     E   E   E   E   
-----------18--15----------------|-----------------------------------------|
-------------------16------------|-----------------------------13--15------|
-----------------------17-15-14--|---L--17b--17--14--14----15----------15--|
---------------------------------|-----------------------------------------|
---------------------------------|-----------------------------------------|
---------------------------------|-----------------------------------------|


   W                          
--------------------|-------||
--------------------|-------||
---L----------------|-------||
--------------------|-------||
--------------------|-------||
--------------------|-------||




Duration Legend
---------------
W - whole
H - half
Q - quarter
E - 8th
S - 16th
T - 32nd
X - 64th
. - note dotted
|-n-|  - n-tuplets


Tablature Legend
----------------
L - tied note
x - dead note
g - grace note
(n) - ghost note
> - accentuded note
NH - natural harmonic
AH - artificial harmonic
TH - tapped harmonic
SH - semi harmonic
PH - pitch harmonic
h - hammer on
p - pull off
b - bend
br - bendRelease
pb - preBend
pbr - preBendRelease
brb - bendReleaseBend
\n/ - tremolo bar dip
\n - tremolo bar dive
-/n - tremolo bar Release up
/n\ - tremolo bar inverted dip
/n - tremolo bar return
-\n - tremolo bar Release down
S - shift slide
s - legato slide
/ -  slide into from below or out of upwards
\ -  slide into from above or out of downwards
~ - vibrato
W - wide vibrato
tr - trill
TP - tremolo picking
T - tapping
S - slap
P - pop
< - fade in
^ - brush up
v - brush down





Comments


Popular Y And T tabs & chords
Barroom Boogie Bass Tabs
Contagious Bass Tabs
Black Tiger Tabs
Contagious Tabs
Contagious 1 Tabs
From The Moon 3 Tabs
Hurricane Tabs
Mean Streak 1 Tabs
Rockhedz Tabs
Winds Of Change Tabs


Song lyrics



↑ Back to top | Tablatures and chords are parodies/interpretations of the original songs. You may use it for private study, scholarship, research or language learning purposes only
© 2014 AZChords.com Contact us | Privacy policy | DMCA | Add/correct tabs | Request tabs | Top 50 tabs