>
 >
Forever

Forever Guitar Tabs

Y And T - Forever chords, tabs, tablatures, lyrics

Guitar lessons | Add/correct | Request | Top 50 tabs Artists:  A B C D E F G H I J K L M N O P Q R S T U V W X Y Z 0-9

Forever Guitar Tabs – Y And T

CD, Sheet music, Poster

Do you like Forever? Share with your friends now
Tabs

----------------------------------------------------------------------------
                             Forever - Y&T
----------------------------------------------------------------------------

Standard Tuning

-----------------------------------------------------------------------------|
-----------------------------------------------------------------------------|
----------------------8----------------7-5--------5-------------7---8------7-|
-5------------5-4-3-2-8----------------7-5--------5-------------7---8------7-|
-5------------5-4-3-2-6----------------5-3--------3-------------5---6------5-|
-3------------3-2-1-0--------------------------------------------------------|


-----------------------------------------------------------------------------|
---------/10-8v---------------/10-11-8v-------8-15v-15b-15r-13b---13br-------|
-------7--------------------7---------------8-------------------14----12-11--|v
-----8--------------------8-------------/10----------------------------------|
-/10------------------/10----------------------------------------------------|
-----------------------------------------------------------------------------|

----------------------------------------------------------------------------|
----------------------------------------------------------------------------|
-11-h12-14-h15-12h15p12h15p12h15p12h15p12h15p12h15p12h15--------------------|
----------------------------------------------------------------------------|
----------------------------------------------------------------------------|
----------------------------------------------------------------------------|

-------------|------------|------------|------------------------------------|
-------------|------------|------------|------------------------------------|
-------------|------------|------------|------8---------------8-------------|
-------------|------------|------------|5-5-5-8-3-3-3-3-5-5-5-8-3-3-3-------|
-------------|------------|------------|5-5-5-6-3-3-3-3-5-5-5-6-3-3-3-------|
-333333333333|333333333333|333333333333|3-3-3---1-1-1-1-3-3-3---1-1-1-------|


----------------------------------------------------------------------------|
----------------------------------------------------------------------------|
-----8---------8---------8---------8-----3-7-8-3----------------------------|
-5-5-8-3-3-5-5-8-3-3-5-5-8-3-3-5-5-8-3-3-3-7-8-3----------------------------|
-5-5-6-3-3-5-5-6-3-3-5-5-6-3-3-5-5-6-3-3-1-5-6-1----------------------------|
-3-3---1-1-3-3---1-1-3-3---1-1-3-3---1-1------------------------------------|

-------------------------------|--------------------------------------------|
-------------------------------|--------------------------------------------|
---------8-8-8-7-5-5-5-5-7-8-10|-------8---------------8--------------------|
-5-5-5-3-8-8-8-7-5-5-5-5-7-8-8-|-5-5-5-8-3-3-3-3-5-5-5-8-3-3-3--------------|
-5-5-5-1-6-6-6-5-3-3-3-3-5-6-8-|-5-5-5-6-3-3-3-3-5-5-5-6-3-3-3--------------|
-3-3-3-1-----------------------|-3-3-3---1-1-1-1-3-3-3---1-1-1--------------|


----------------------------------------------------------------------------|
-------------10br------------------11-/15-15-13-11-13v-11-------------------|
-/12v-/12-10-----------------10-12------------------------14-12v------------|
-----------------/12-10br-12------------------------------------------------|
----------------------------------------------------------------------------|
----------------------------------------------------------------------------|


-----------------------------------------------------------------------------|
-----------------------------------------------------------------------------|
---------------------------------------------------7-5-----------------------|
-5--5-5------------------3-5--5-5------------------7-5--5-5------------------|
-5---------------3-5-----3-5---------------3-5-----5-3---------------3-5-----|
-3-3-3-3-5-6-5-6-----6-3-1-3-3-3-3-5-6-5-6-----6-3-----3-3-3-5-6-5-6-----6-3-|


-----------|-----------------------------------------------------------------|
-----------|-----------------------------------------------------------------|
-----------|-----------------------------------------------------------------|
-----------|-5-5----------------5-3----------5-5----------------5-3----------|
-3-5-6-7-8-|-------------3-5--------5-3------------------3-5--------6-5-3----|
-----------|3-3-3-5-6-5-6---6-3---------6-3-3-3-3-5-6-5-6---6-3----------6-3-|


------------------------------------------|---------------------------------|
------------------------------------------|---------------------------------|
------------------------------------------|---12-12-12----------------------|
--5--5-------------------5-3--------------|---------------------------10-12-|
-----------------3-5---------6-5-3-5-6-7-8|10----------10-12-13-12-13-------|
-3--3--3-5-6-5-6-----6-3------------------|---------------------------------|

-----------------------------------------------------------------------------|
-----------------------------------------------------------------------------|
-------12-10----------------12-12-12---------------------------12-10---------|
------------12-10----------------------------------10-12------------13-12-10-|
-13-10-------------13-10-10----------10-12-13-12-13-------13-10--------------|
-----------------------------------------------------------------------------|


----------------------------------------------------------------------------|
----------------------------------------------------------------------------|
----------12-12-12----------------------------12-10-------------------------|
----------------------------------10-12-------------13-12-10-12-13-14-15----|
-13-10-10----------10-12-13-12-13-------13-10-------------------------------|
----------------------------------------------------------------------------|


-|13-15|17br-15-13-15-13-15-13-15-17br-15-13-15-13-15-13-15-17br-15-13-15-13-|
-|-----|---------------------------------------------------------------------|
-|-----|---------------------------------------------------------------------|
-|-----|---------------------------------------------------------------------|
-|-----|---------------------------------------------------------------------|
-|-----|---------------------------------------------------------------------|


-19b-19b-19v-19b-19v-19b-15-17b-15-17b-17-15-------15v----------------------|
---------------------------------------------18-17-----18-p17-p15-----------|
------------------------------------------------------------------17-15-----|
----------------------------------------------------------------------------|
----------------------------------------------------------------------------|
----------------------------------------------------------------------------|


----------------------------------------------------------------------------|
-18-17-15-17-15----15-------------------------------------------------------|
----------------17----17-16-14-16-14----14----------------------------------|
-------------------------------------17----17-16-17-16-14-16-14-12----12----|
-------------------------------------------------------------------15----15-|
----------------------------------------------------------------------------|


----------------------------------------------------------------------------|
----------------------------------------------------------------------------|
-------------------------------------------------------12----12-14----------|
----------------------------12----12-14-12-14-15-14-15----15----------------|
-14-15-14-12-12-14-15-14-15----15-------------------------------------------|
----------------------------------------------------------------------------|


------------------|-------|------------------------|--------|---------------|
------------------|-------|------------------------|--------|---------------|
------------------|3-7-8-3|---------8-8-8-7-5-5-5-5|7---8-10|-7-7-7-7-7-7-7-|
------------------|3-7-8-3|-5-5-5-3-8-8-8-7-5-5-5-5|7---8-10|-7-7-7-7-7-7-7-|
------------------|1-5-6-1|-5-5-5-3-6-6-6-5-3-3-3-3|5---6-8-|-5-5-5-5-5-5-5-|
---------------9bv|-------|-3-3-3-1----------------|--------|---------------|


----------------------------------------------------------------------------|
----------------------------------------------------------------------------|
----------------------8---------------7-5--------7--------------------------|
-5--------------4-3-2-8---------------7-5--------7---4---5------------------|
-5--------------4-3-2-6---------------5-3--------5---4---5------------------|
-3--------------2-1-0--------------------------------2---3------------------|


---------------------------------------------------------20v|p19-p17-20v|---|
---------/10-8v----------------/10-11-8v-------8-15v-19v----|-----------|---|
-------7---------------------7---------------8--------------|-----------|---|
-----8---------------------8-------------/10----------------|-----------|---|
-/10-------------------/10----------------------------------|-----------|---|
------------------------------------------------------------|-----------|---|





Comments


Popular Y And T tabs & chords
Contagious 1 Tabs
From The Moon Tabs
From The Moon 3 Tabs
Hang Em High Tabs
Mean Streak Tabs
Midnight In Tokyo Tabs
Rescue Me Tabs
Rescue Me 1 Tabs
Rockhedz Tabs
Summertime Girls Intro Tabs


Song lyrics



↑ Back to top | Tablatures and chords are parodies/interpretations of the original songs. You may use it for private study, scholarship, research or language learning purposes only
© 2014 AZChords.com Contact us | Privacy policy | DMCA | Add/correct tabs | Request tabs | Top 50 tabs