» » »

Y And T, Dont Wanna Lose Tabs (ver.1)

Artists:  A B C D E F G H I J K L M N O P Q R S T U V W X Y Z # 

Dont Wanna Lose Tabs (ver.1)

Y And T Tabs
 Rating:
4/5 (4 votes)
Dont Wanna Lose lessons Tabs too difficult? Try these video lessons and learn fast
                -------------------------------------------------------------------------------
                             Don't Wanna Lose - Y and T
-------------------------------------------------------------------------------

Tuning: standard

   Intro play 2x
e|--------------------------------|
B|--------------------------------|
G|--------------------------------|
D|---------7-7--3-3-3--5-5--7-7-7-|
A|-----3---5-5--1-1-1--3-3--5-5-5-|
E|--5----5------------------------|
   Verse
e|-----------1------1-----1-1--1-1----------------------------------|
B|-----------1------1-----1-1--1-1--5---6--5-5---6-6-6-5------------|
G|----------------------------------5---5--5-5---5-5-5-5-3--------3-|
D|----------------------------------5--------5---5-5-5-5-3--------3-|
A|--1-0---------3-3---3-3-----------3-3---3--3-3---------1--1-1-1-1-|
E|------3-1-(1)-1-1---1-1-------------------------------------------|

e|----------------------------------|-----------1------1-----1-1--1-1-|
B|----------------------------------|-----------1------1-----1-1--1-1-|
G|--5--------5--5--------5------5-5-|---------------------------------|
D|--5--------5--5--------5------5-5-|---------------------------------|
A|--3--3-3-3-3--7--7-7-7-7--7-7-7-7-|--1-0---------3-3---3-3----------|
E|----------------------------------|------3-1-(1)-1-1---1-1----------|

e|-------------------------------------------------------|
B|--5---6--5-5---6-6-6-5---------------------------------|
G|--5---5--5-5---5-5-5-5-3--------3--5--------5----------|
D|--5--------5---5-5-5-5-3--------3--5--------5--5---7-7-|
A|--3-3---3--3-3---------1--1-1-1-1--3--3-3-3-3--5---7-7-|
E|-----------------------------------------------3---5-5-|         *2nd chorus
  Chorus                                                            play 2x
e|-----------------------------------------------------------------|----------|
B|-----------------------------------------------------------------|----------|
G|-----------------------------------------------------------------|----------|
D|---------7-7--3-3-3--5-5--7-7-7-----------7-7--3-3-3--5-5--7-7-7-|-3--5--7--|
A|--0--3---5-5--1-1-1--3-3--5-5-5-------3---5-5--1-1-1--3-3--5-5-5-|-1--3--5--|
E|-------5---------------------------5----5------------------------|----------|

  Play verse and chorus again

  Solo                | Play 2x
e|--------------------|--------------------------------|
B|--------------------|--------------------------------|
G|--3--5--7--3--5--7--|--------------------------------|
D|--3--5--7--3--5--7--|---------7-7--3-3-3--5-5--7-7-7-|
A|--1--3--5--1--3--5--|-----3---5-5--1-1-1--3-3--5-5-5-|
E|--------------------|--5----5------------------------|

  Play verse and chorus again


  Outro chorus play 5x fade out

e|---------------|
B|---------------|
G|--3--5--7--7-5-|
D|--3--5--7--7-5-|
A|--1--3--5--5-3-|
E|---------------|


| /  slide up
| \  slide down
| h  hammer-on
| p  pull-off
| ~  vibrato
| +  harmonic
| x  Mute note
===============================================================================
            
Submit corrections

comments powered by Disqus
↑ Back to top | Y And T Tabs for Dont Wanna Lose. Lyrics for acoustic guitar and electric guitar. Tablatures and chords are parodies/interpretations of the original songs. You may use it for private study, scholarship, research or language learning purposes only