>
 >
Black Tiger

Black Tiger Guitar Tabs

Y And T - Black Tiger chords, tabs, tablatures, lyrics

Guitar lessons | Add/correct | Request | Top 50 tabs Artists:  A B C D E F G H I J K L M N O P Q R S T U V W X Y Z 0-9

Black Tiger Guitar Tabs – Y And T

CD, Sheet music, Poster

Do you like Black Tiger? Share with your friends now
Tabs
----------------------------------------------------------------------------
                             BLACK TIGER - Y & T
----------------------------------------------------------------------------

Tuning: standard tuning

| h  hammer-on
| p  pull-off
| ~  vibrato
| b  bend
| .  mute note
| ps pick scrape


Use distortion


Riff 1 (6"): play this 6 times
e|--------------------------------------------------------------------------|
B|--------------------------------------------------------------------------|
G|--------------------------------------------------------------------------|
D|--------------------------------------------------------------------------|
A|----------------0stop------0-1-1-2-2--------------------------------------|
E|--0-1-2-2-2-0-2----------------------2-2-2-0-2stop------------------------|
    . . . . . . . .          . . . . . . . . . .


Riff 2 (55"): play this 2 times (the first time, don't palm mute first chord)
e|--------------------------------------------------------------------------|
B|--------------------------------------------------------------------------|
G|------------2----2-0-2--4p2---------------11---11-------------------------|
D|--4-4-4---4-2----2-0-2--2-2----------4----11---11-------------------------|
A|--4-4-4---4-0----0-0-0--0-0----------4-----9-9--9-------------------------|
E|--2-2-2-0-2------------------2-2-2-0-2------------------------------------|
    . . .                      . . .


Riff 3 (1'07"):
e|---------------------------------------------------------------|----------|
B|---------------------------------------------------------------|----------|
G|-----5--------------------7--------------5-------------------7-|----------|
D|--5--5-----5--7-----------7--------------5----5--7-----------7-|----------|
A|--3--0-----3--5--0-0-0-0---------3-3-3-3-0----3--5--0-0-0-0----|-0--------|
E|---------------------------------------------------------------|---431234-|
                   . . . .         . . . .            . . . .      . ......

now repeat the first part, but replace the palm muted notes at the end by:
e|--------------------------------------------------------------------------|
B|--------------------------------------------------------------------------|
G|--------------------------------------------------------------------------|
D|---7-6-5-4-3--------------------------------------------------------------|
A|---7-6-5-4-3--------------------------------------------------------------|
E|---5-4-3-2-1hold----------------------------------------------------------|


Riff 2 (1'31"): play 2 times

Riff 3 (1'42")

Riff 2 (2'06"): play 4 times

Riff 4 (2'29"): play this twice, but change the ending the second time
                                                   1      2
e|----------------------------------------------|-----|---------------------|
B|----------------------------------------------|-----|---------------------|
G|----------------------------------------------|-----|---------------------|
D|--4-----7--7--4---------7-----5-----7-----7---|--4--|--7-6-5-4-3----------|
A|--2-----5--7--4---------7-----5-----5-----7---|--2--|--7-6-5-4-3----------|
E|-----------5--2-2-2-2---5-----3-----------5---|-----|--5-4-3-2-1hold------|
                  . . .


Solo (2'53"): play Riff 2 as background (mind the ending! slightly different)
              play this 4 times
e|--------------------------------------------------------------------------|
B|--------------------------------------------------------------------------|
G|------------2----2-0-2--4p2-----------------------------------------------|
D|--4-4-4---4-2----2-0-2--2-2----------4------------------------------------|
A|--4-4-4---4-0----0-0-0--0-0----------4------------------------------------|
E|--2-2-2-0-2------------------2-2-2-0-2hold--------------------------------|
    . . .                      . . .


Harmony (3'16"): play Riff 4 as background
e|--------------------------------------------------------------------------|
B|----------------------------------------------------------7p5-------------|
G|--4-2---2------------4-2---2~----4-2---2------------4-7p4-----7p4~--------|
D|------4---4-2-4----------4-----------4---4-2-4----------------------------|
A|----------------0------------------------------0--------------------------|
E|--------------------------------------------------------------------------|

e|------------------------------------14-14~--------------------------------|
B|--12-10----10--------------12------------------12-10----10----------------|
G|--------11----11-9-11---------14-11------------------11----11-9-11--------|
D|----------------------7---------------------------------------------------|
A|--------------------------------------------------------------------------|
E|--------------------------------------------------------------------------|

e|-----------------10-11-12-13-14~------------------------------------------|
B|--10-11-12-13-14----------------------------------------------------------|
G|--------------------------------------------------------------------------|
D|--------------------------------------------------------------------------|
A|--------------------------------------------------------------------------|
E|--------------------------------------------------------------------------|


Riff 2 (3'39"): play 4 times. Again, the ending is slightly different
e|--------------------------------------------------------------------------|
B|--------------------------------------------------------------------------|
G|------------2----2-0-2--4p2-------------2---------------------------------|
D|--4-4-4---4-2----2-0-2--2-2----------4----4~------------------------------|
A|--4-4-4---4-0----0-0-0--0-0----------4------------------------------------|
E|--2-2-2-0-2------------------2-2-2-0-2------------------------------------|
    . . .                      . . .


And finish with this:
e|--------------------------------------------------------------------------|
B|--------------------------------------------------------------------------|
G|------------2-------------------------------------------------------------|
D|--4-4-4---4-2-------------------------------------------------------------|
A|--4-4-4---4-0-------------------------------------------------------------|
E|--2-2-2-0-2---------------------------------------------------------------|


That's it! Enjoy!

============================================================================

============================================================================





Comments


Popular Y And T tabs & chords
Barroom Boogie Bass Tabs
Contagious Bass Tabs
On With The Show Chords
Dont Stop Runnin Tabs
From The Moon 3 Tabs
Hurricane Tabs
Mean Streak Tabs
Mean Streak 1 Tabs
Replace Tabs
Rescue Me Tabs


Song lyrics



↑ Back to top | Tablatures and chords are parodies/interpretations of the original songs. You may use it for private study, scholarship, research or language learning purposes only
© 2014 AZChords.com Contact us | Privacy policy | DMCA | Add/correct tabs | Request tabs | Top 50 tabs