» » »

Far Far Tabs (ver.1)

Artists:  A B C D E F G H I J K L M N O P Q R S T U V W X Y Z # 

Far Far Tabs (ver.1)

Yael Naim
Rating:
5/5 (3 votes)

Hard to play? Try these video lessons and learn fast.
                Yael Naim - Far Far
(CAPO 2/3)

the chords just uploaded, I figured out some tabs which sound good to me. I believe
Capo 2 but it depends on your guitar's tuning and your vocal range, I suppose.

I tried my best to make this as easy as possible to understand. I went ahead and put the
out for the entire first verse, even though it's repetitive. I figured it'd be easier
people to read it for the first time. I didn't place each note precisely where they 
be played, but they're close. Once you get the hang of it, the rest of the song is simple.

I can't tell exactly what she plays in the video so you can probably alter a lot of the
you pick (especially in the chorus, that's just how I do it).

So this is my first tablature, let me know if there's something wrong. Have fun!

------------------------------------------------------------------

Chords finger-picked: 	        G: 	 320033
				D: 	 xx0232
				Em7: 	 020030
				Cadd9:   032030

Strummed at end: 		Am: 002210
                                D*: xx0233
**The strumming part is hard for me to time out onto here, so I would watch
the video for timing. The chords are the same as above except I believe she
holds her pinky on the 3rd fret of the high E string. **

Verse 1

 G			    D
-------3--------------------2-----|
----------3---------------3----3--|
-----0-----0------------2-------2-|
----------------------0-----------|
---2------------------------------|
-3--------------------------------|
Far far, there's this little girl

       Em7			 Cadd9
-------------0--------------------------0-------|
------------3---3-------------------------3-----|
----------0------0-------------------0------0---|
-----------------------------------2------------|
--------2------------------------3--------------|
------------------------------------------------|
she was praying for something to happen to her

 G		      D
-------3--------------------2-----|
----------3---------------3----3--|
-----0-----0------------2-------2-|
----------------------0-----------|
---2------------------------------|
-3--------------------------------|
everyday she writes words and more words

       Em7			 Cadd9
-------------0--------------------------0-------|
------------3---3-------------------------3-----|
----------0------0-------------------0------0---|
-----------------------------------2------------|
--------2------------------------3--------------|
------------------------------------------------|
just to speak out the thoughts that keep floating inside

 G			    D
-------3-------------------------2-----|
----------3--------------------3----3--|
-----0-----0-----------------2-------2-|
---------------------------0-----------|
---2-----------------------------------|
-3-------------------------------------|
and she's strong when the dreams come 'cause they

 Em7	             Cadd9
------0---------------------0-------|
-----3---3--------------------3-----|
---0------0--------------0------0---|
-----------------------2------------|
-2-------------------3--------------|
------------------------------------|
take her, cover her, they are all over

 G		      D
-------3--------------------2-----|
----------3---------------3----3--|
-----0-----0------------2-------2-|
----------------------0-----------|
---2------------------------------|
-3--------------------------------|
the reality looks far now,

     Em7			Cadd9
-------------0--------------------------0-------|
------------3---3-------------------------3-----|
----------0------0-------------------0------0---|
-----------------------------------2------------|
--------2------------------------3--------------|
------------------------------------------------|
but don't go


Chorus (x2)

	    Cadd9	      G
------------------0-----------------3------|
--------------------3-------------3---3----|
----------------0-----0-----------------0--|
--------------2----------------------------|
------------3-------------------2----------|
------------------------------3------------|
how can you stay   . . .   outside?

	  Em7		   D
----------------0----------------2-------|
--------------3----3-----------3----3----|
------------0-------0--------2-------2---|
---------------------------0-------------|
---------2-------------------------------|
-----------------------------------------|
there's a beautiful mess inside

(Same as Verse 1)
oh oh oh oh


(Same as Verse 1)
far far, there's this little girl
she was praying for something good to happen to her
dazeling her eyes, tickeling her hands
they invent her a new world with
oil skies and aquarel rivers
but don't you run away already
please don't go oh oh

(Chorus)
how can you stay outside?
there's a beautiful mess inside
how an you stay outside?
there's a beautiful mess inside
take a deep breath and dive
there's a beautiful mess inside
how can you stay outside?
There's a beautiful mess
beautiful mess inside

(Same as Verse 1)
oh beautiful, beautiful

(Same as Verse 1)
far far there's this little girl
she was praying for something big to happen to her
every night she ears beautiful strange music
it's everywhere there's nowhere to hide
but if it fades she begs
"oh lord don't take it from me, don't take it yourselves"
i guess i'll have to give it birth


(Strums next two verses:
	 Cadd9, G, Em7, D
	 Cadd9, G, Em7, D, Am
         Em7, Cadd9, D, Am
         Em7, Cadd9, D, Am
         Em7, Cadd9, D, Am
         Cadd9, Em7, D, D*, D   )

to give it birth
i guess, i guess, i guess i have to give it birth
i guess i have to, have to give it birth
there's a beautiful mess inside and it's everywhere

so shake it yourself now deep inside
deeper than you ever dared
deeper than you ever dared
there's a beautiful mess inside
beautiful mess inside

(Same as Verse 1)
beautiful mess inside,
beautiful mess inside
            
Hard to play? Try these video lessons and learn fast. | Correct




comments powered by Disqus
↑ Back to top | Tablatures and chords are parodies/interpretations of the original songs. You may use it for private study, scholarship, research or language learning purposes only