>
 >
Superjacto

Superjacto Guitar Tabs

Xutos And Pontapes - Superjacto chords, tabs, tablatures, lyrics

Guitar lessons | Add/correct | Request | Top 50 tabs Artists:  A B C D E F G H I J K L M N O P Q R S T U V W X Y Z 0-9

Superjacto Guitar Tabs – Xutos And Pontapes

CD, Sheet music, Poster

Do you like Superjacto? Share with your friends now
ChordsTabsUkulele
-------------------------------------------------------------------------------
                             Superjacto - Xutos & Pontapés
-------------------------------------------------------------------------------

Tuning:standart


e|--0------------------------------------------------------------------------|
B|--0------------------------------------------------------------------------|
G|--1------------2-----1~----------------------------------------------------|
D|--2-------2/4-----2--------------------------------------------------------|
A|--2------------------------------------------------------------------------|
E|--0------------------------------------------------------------------------|

e|---------------------------------------------------------------------------|
B|------0-----0-------0-----0-------0-----0-------0-----0--------------------|
G|---------------------------------------------------------------------------|
D|----2-----2-------2-----2-------2-----2-------2-----2--------(x2)----------|
A|--4-----4-------2-----2-------0-----0-------2-----2------------------------|
E|---------------------------------------------------------------------------|

e|-0------------------------------------2----4~------------------------------|
B|-0--------------0---------2---4---5--------5~------------------------------|
G|-1--------2-------------2---2---2---2---2----------------------------------|
D|-2---2/4-----2-------------------------------------------------------------|
A|-2-------------------------------------------------------------------------|
E|-0-------------------------------------------------------------------------|

e|-----------------------------------------------------o---------------------|
B|-------------------------0---------------------9^----o---------------------|
G|-----2-----1--------2----1------2-----1----/11-------1---------------------|
D|---4----2--2----2/4---2--2----4-----2----------------2---------------------|
A|-----------2---------------------------------------------------------------|
E|-----------0---------------------------------------------------------------|

e|---------------------------------------------------------------------------|
B|------0-----0-------0-----0-------0-----0-------0-----0--------------------|
G|---------------------------------------------------------------------------|
D|----2-----2-------2-----2-------2-----2-------2-----2--------(x2)----------|
A|--4-----4-------2-----2-------0-----0-------2-----2------------------------|
E|---------------------------------------------------------------------------|

e|---------------------------------------------------------------------------|
B|------5----5--------4----5--4h5---5---5----5---7---7-----------------------|
G|--4/6----x-4---4/6-----x-4--4-----4-x-4--x-4---4-x-4-----------------------|
D|---------------------------------------------------------------------------|
A|---------------------------------------------------------------------------|
E|---------------------------------------------------------------------------|

e|---------------------------------------------------------------------------|
B|-----4----7p5------4----5--4h5---5-5----5-5----7-7----7--------------------|
G|--/6----x-4-----/6----x-4--4-----4-4--x-4-4--x-4-4--x-4--------------------|
D|---------------------------------------------------------------------------|
A|---------------------------------------------------------------------------|
E|---------------------------------------------------------------------------|

e|-----0------------0--------------------------------------------------------|
B|-----0------------0------2/4-4/5-5/7-7/9-----------------------------------|
G|-1---------2-----------2---------------------------------------------------|
D|-2------/4----/6-----------------------------------------------------------|
A|-2-------------------------------------------------------------------------|
E|-0-------------------------------------------------------------------------|

solo

e|---------------------------------------------------------------------------|
B|-----12~----------------9--10p9--12-10-9-----------------------------------|
G|-/13-------8^hb<-->11b-------------------9--8hbr-8hb<----------------------|
D|-------------------------------------------------------->9--9-9br~---------|
A|---------------------------------------------------------------------------|
E|---------------------------------------------------------------------------|

e|---------------------------------------------------------------------------|
B|---------------------------------------------9-----------------------------|
G|------------------9----------------9-9--9h11---9/8-8hbr--------------------|
D|----------------9----------------9----------------------9---9pbr-----------|
A|--------9-10-11-------------9h10-------------------------------------------|
E|-/9--12---------------/9-12------------------------------------------------|

e|-----12p9-----------------------------------------------------14-16~-------|
B|-/9-------9-12-9-10-9--12br-9---10--10--12^--14/16-16--17-17b--------------|
G|--------------------------------12b----------------------------------------|
D|---------------------------------------------------------------------------|
A|---------------------------------------------------------------------------|
E|---------------------------------------------------------------------------|

e|-----0-------0------0----------0---------0--------0------------------------|
B|-----------0------------2---/4---4---------0--------0-------5---4---5--4---|
G|---3-----1-------2----2----------------------2--1-----1/4-4---4---4---4----|
D|-4-------------------------------------4-----------------------------------|
A|---------------------------------------------------------------------------|
E|---------------------------------------------------------------------------|

e|-----0-------0------0----------0---------0--------0------------------------|
B|-----------0------------2---/4---4---------0--------0-------5---4---5--4---|
G|---2-----1-------2----2----------------------2--1-----1/4-4---4---4---4----|
D|-4-------------------------------------4-----------------------------------|
A|---------------------------------------------------------------------------|
E|---------------------------------------------------------------------------|

e|---------------------------------------------------------------------------|
B|-----4----5----4----5----4-------------------------------------------------|
G|-4-4---4----44---44---44---------------------------------------------------|
D|---------------------------------------------------------------------------|
A|---------------------------------------------------------------------------|
E|---------------------------------------------------------------------------|

e|---------------------------------------------------------------------------|
B|-----4----7p5------4----5--4h5---5-5----5-5----7-7----7--------------------|
G|--/6----x-4-----/6----x-4--4-----4-4--x-4-4--x-4-4--x-4---------(x2)-------|
D|---------------------------------------------------------------------------|
A|---------------------------------------------------------------------------|
E|---------------------------------------------------------------------------|


e|----------------------------------------------------------------------0----|
B|------0-----0-------0-----0-------0-----0-------0-----0---------------0----|
G|----------------------------------------------------------------------1----|
D|----2-----2-------2-----2-------2-----2-------2-----2--------(x4)-----2----|
A|--4-----4-------2-----2-------0-----0-------2-----2-------------------2----|
E|----------------------------------------------------------------------0----|





************************************

| ^  tremolo dive and release
| >  tremolo release
| <  tremolo dive
| [] artificial harmonic
|pbr pre-bend release
| pb pre-bend
| hb half bend
| r bend release
| b  Full Bend
| *  Palm Mute
| /  slide up
| \  slide down
| h  hammer-on
| p  pull-off
| ~  vibrato
| +  natural harmonic
| x  Mute note

************************************





Comments


Popular Xutos And Pontapes tabs & chords
Cerco Bass Tabs
Douras Bass Tabs
Enquanto A Noite Cai Bass Tabs
Estupidez Chords
Longo Se Torna A Espera Chords
Pra Ti Maria Chords
Ai Se Ele Cai Ukulele
Casinha Ukulele
Classe De 79 Ukulele
Tetris Annimus Ukulele


Song lyrics



↑ Back to top | Tablatures and chords are parodies/interpretations of the original songs. You may use it for private study, scholarship, research or language learning purposes only
© 2014 AZChords.com Contact us | Privacy policy | DMCA | Add/correct tabs | Request tabs | Top 50 tabs