» » »

Xutos And Pontapes, Sexo Bass tabs (ver.1)

Artists:  A B C D E F G H I J K L M N O P Q R S T U V W X Y Z # 

Sexo Bass tabs (ver.1)

Xutos And Pontapes Tabs
 Rating:
4/5 (4 votes)
Sexo lessons Tabs too difficult? Try these video lessons and learn fast
1
                MUSIC:SEXO (Circo de Feras,1987 Polygram Track 05 04:13)
BASS PLAYER:TIM

Riff  1
E-----------------------|
A-----------------------|
D-5-5-7-7-5--5-5-7-7-5--|
G-----------------------|

Riff  2
E----------------------|
A-3-3-5-5-3--3-3-5-5-3-|
D----------------------|
G----------------------|

Riff  3
E-----------------|
A-7-7-7-7-7-7-7-7-|
D-----------------|
G-----------------|

Riff 4
E--------------------------------------------------------3-3-5-5-3-3-3-5-5-3-3-3-5-5---|
A-2-2-3-3-2-2-2-2-3-3-2-2-2-3-3-2-2-2-2-3-3-2------------------------------------------|
D--------------------------------------------------------------------------------------|
G--------------------------------------------------------------------------------------|

Riff 1 8x (00:20)
Riff 2 1x (00:46)
Riff 1 1x (00:49)
Riff 2 1x (00:52)
Riff 1 1x (00:55)
Riff 3 1x (00:58)
Riff 1 1x (01:01)
Riff 3 1x (01:04)
Riff 1 4x (01:10)
Riff 2 1x (01:23)
Riff 1 3x (01:26)
Riff 3 1x (01:35)
Riff 1 1x (01:38)
Riff 3 1x (01:41)
Riff 1 5x (01:44)
Riff 4 3x (02:00)
Riff 3 1x (02:37)
Riff 1 1x (02:40)
Riff 3 1x (02:42)
Riff 1 1x (02:46)
            
Submit corrections

comments powered by Disqus
↑ Back to top | Xutos And Pontapes Bass for Sexo. Lyrics for acoustic guitar and electric guitar. 1 Tablatures and chords are parodies/interpretations of the original songs. You may use it for private study, scholarship, research or language learning purposes only