» » »

Remar Remar Tabs (ver.1)

Artists:  A B C D E F G H I J K L M N O P Q R S T U V W X Y Z # 

Remar Remar Tabs (ver.1)

Xutos And Pontapes
Rating:
0/5 (0 votes)

Hard to play? Try these video lessons and learn fast.
                remar remar
xutos e pontapes


     intro e verses                               solo por cima do intro

||----------------------------------------|---------------------------------------|
||----------------------------------------|---------------------------------------|
||----------------------------------------|-----------------------------------------|
||--12 repeat 11--repeat------------------|-------------1010-----------------12-11-9|
||--12--------11--------------------------|--------1212------12------------12-----|
||--10--------9---------------------------|--10 10 -------------10---10 10--------|


||----------------------------------------|---------------------------------------|
||----------------------------------------|---------------------------------------|
||----------------------------------------|---------------------------------------|
||-------------1010-----1212-1111-99------|-----------1010--------------12-11-9---|
||-------1212------1212-------------12----|-------1212-----1212------12-----------|
||-10 10----------------------------------|---9-9---------------9-9---------------|

||----------------------------------------|---------------------------------------|
||----------------------------------------|---------------------------------------|
||----------------------------------------|---------------------------------------|
||-----------1010----1212--1111--99-------|---------------------------------------|
||------1212-----1212----------------12---|---------------------------------------|
||--9-9-----------------------------------|---------------------------------------|

chorus  ( todas as tuas . . . )

||----------------------------------------|---------------------------------------|
||-------------------------2x depois------|---------------------------------------|
||--9--repeat-----------------------------|---------------------------------------|
||--9---------12--repeat--------------11--|---------------------------------------|
||--7---------12----------------------11--|---------------------------------------|
||------------10----------------------9---|----7~--8~--9~-------------------------|

simples não
XUTOS FOR EVER
http:\\outlinerocks.tripod.com
            
Hard to play? Try these video lessons and learn fast. | Correct




comments powered by Disqus
↑ Back to top | Tablatures and chords are parodies/interpretations of the original songs. You may use it for private study, scholarship, research or language learning purposes only