>
 >
O Falco

O Falco Guitar Tabs

Xutos And Pontapes - O Falco chords, tabs, tablatures, lyrics

Guitar lessons | Add/correct | Request | Top 50 tabs Artists:  A B C D E F G H I J K L M N O P Q R S T U V W X Y Z 0-9

O Falco Guitar Tabs – Xutos And Pontapes

CD, Sheet music, Poster

Do you like O Falco? Share with your friends now
Tabs
-------------------------------------------------------------------------------
                             O Falcão - Xutos & Pontapés
-------------------------------------------------------------------------------
Tuning:standart

clean guitar

e|----------0---------------------------------0--------------------------------|
B|-----3---------3--------2---3------------3------3------2--3------------------|
G|-----------------4------------0------------------4-----2--0------------------|
D|---4------------------2---------0------4---------------2--0--(~)-------------|
A|-2------2----2------0-----0--------0-2-----2---2-----0----2------------------|
E|----------------------------3-----------------------------3------------------|
-|

e|---------0-------------------------------0-----------------------------------|
B|-----3-------3-------2---3-----------3-------3------2--3---------------------|
G|---------------4-----------0-------2-----------2----2--0---------------------|
D|---4---------------2---------0---0-----0---0--------2--0---------------------|
A|-2-----2---2-----0-----0--------------------------0----2---------------------|
E|-------------------------3-----3-----------------------3---------------------|


e|----------0---------------------------------0--------------------------------|
B|-----3---------3--------2---3------------3------3------2--3------------------|
G|-----------------4------------0------------------4-----2--0------------------|
D|---4------------------2---------0------4---------------2--0--(~)-------------|
A|-2------2----2------0-----0--------0-2-----2---2-----0----2------------------|
E|----------------------------3-----------------------------3------------------|
-|

e|---------0-------------------------------0---------------------------------|
B|-----3-------3-------2---3-----------3-------3------2--3-------------------|
G|---------------4-----------0-------2-----------2----2--0-------------------|
D|---4---------------2---------0---0-----0---0--------2--0-------------------|
A|-2-----2---2-----0-----0--------------------------0----2-------------------|
E|-------------------------3-----3-----------------------3---2---------------|

e|---------0---------------0-----------------0-------------------------------|
B|-----3-------3-------------2-----------3-------3-------3---2-0-------------|
G|---------------0-----3-------3-------------------0-------------------------|
D|---2---2---2-------4---4--------4----2---2---2-------2---------------------|
A|---------------------------------------------------0-----0-----------------|
E|-0---------------2-----------------0---------------------------------------|

e|---------0-----------------------------------------------------------------|
B|-----3---------------------0----------------3------------------------------|
G|-----------------------3-----3----------4-----4-----------6-------7--------|
D|---2---2-------------4---4-----4------5---5-----5-------7-------8----------|
A|------------------------------------------------------7-------8------------|
E|-0-----------------2--------------2-3-------------3-5-------6--------------|

distorted guitar

e|---------------------------------------------------------------------------|
B|---------------------------------------------------------------------------|
G|-5------------5-(~)--------------------------------------------------------|
D|-5--(x11)------------------------------------------------------------------|
A|-2--------2-2--------------------------------------------------------------|
E|---------------------------------------------------------------------------|
            * *

e|---------------------------------------------------------------------------|
B|------5(~)-----------------5^--2hbr-[0]<------5^-----------5^--------------|
G|--4/7------4-6-6hb-pbrp4-7---------------4>-7----/7-6-6hb-7--6hbr-[4]<-4>--|
D|---------------------------------------------------------0-----------------|
A|---------------------------------------------------------------------------|
E|---------------------------------------------------------------------------|

e|---------------------------------------------------------------------------|
B|------------8---7(~)-----5--------------------8b-7^-7-7--------------------|
G|-(4)(~)--/6---x--------/6----6pbr-7(~)----/7--------7---9-7-6hb(~)6pbr\4---|
D|---------------------------------------------------------------------------|
A|---------------------------------------------------------------------------|
E|---------------------------------------------------------------------------|

e|-----------------------------------7----5--3^------------------------------|
B|----------5------------------8b-7^---/7-------3-/7-------------------------|
G|-4(~)---/6---6pbr-7(~)----/7-----------------------9-7-6hbr----------------|
D|------------------------------------------------------------9-(0)----------|
A|---------------------------------------------------------------------------|
E|---------------------------------------------------------------------------|

e|---------------------------------------------------------------------------|
B|--/7-----------------------------------------------------------------------|
G|-----9-7-6hbr----------7-9(~)---6---9-7-----7-9^-7-6-------7-9^------------|
D|--------------9--7/9-9-------/8---8-----7/9----------9-7-9-----------------|
A|---------------------------------------------------------------------------|
E|---------------------------------------------------------------------------|

e|---------------------------------------------------------------------------|
B|-----------------------------10--------------------------------------------|
G|----6-----6---6/7-9(~)--9-9b----9pbr-7-------------------------------------|
D|-/8---8-9---8--------------------------9-----------------------------------|
A|---------------------------------------------------------------------------|
E|---------------------------------------------------------------------------|

e|------------------------------------------------------7-----------7-7------|
B|----------------------------------------------------7---7-10b-10--7-7------|
G|---------------------------------7---[7]b-9----7----------------------7p6--|
D|--11pbr-9-9--7----------------/9---x--------9^---9^------------------------|
A|---------------7h8p7\5-----------------------------------------------------|
E|-----------------------7p5-7-----------------------------------------------|

e|---------------------------------------------------------------------------|
B|---------------------------------------------------------------------------|
G|-7-7p6----------6h7p6-------------------------7<-7-7------7----7----7-6-4--|
D|-------9br-7-9--------9-7---------------------7<-7-7--xxx-7-xx-7-xx--------|
A|--------------------------9-7h8p7------------------------------------------|
E|----------------------------------10-7--2/5-7------------------------------|

e|----------------------7--------10p7----------------------------------------|
B|---------------10-------------------xx-10p7--------------------------------|
G|-2/4-/7-7--/11----/11---9pbr-7--------------xx-9brp7---9p7-----------------|
D|-----/7-7--------------------------------------------9-----9-7-------------|
A|---------------------------------------------------------------9-8-7-------|
E|---------------------------------------------------------------------10-7--|

e|---------------------------------------------------------------------------|
B|------------------------10-10b-10pb-10-10b---------------------------------|
G|----------6h7-6>-7>-9>b---------------------7-(~)--------------------------|
D|--------7-----------------------------------7-(~)--------------------------|
A|----7-9--------------------------------------------------------------------|
E|-10------------------------------------------------------------------------|

e|--9hb-9-7----7^------------------------------------------------------------|
B|----------10----10-7b-7pbr---7----------------------5p3-5p3-7p5-7p5--------|
G|---------------------------9---9-7-6-7-6hbr--------------------------------|
D|--------------------------------------------9-7-7/9------------------------|
A|---------------------------------------------------------------------------|
E|---------------------------------------------------------------------------|

e|---------------------------------------------------------------------------|
B|--10p7-10p7-12p10-12p10-15p12-15p12-15p12-15p12-17-17b-17b-17b(~)----------|
G|---------------------------------------------------------------------------|
D|---------------------------------------------------------------------------|
A|---------------------------------------------------------------------------|
E|---------------------------------------------------------------------------|

clean guitar

e|----------0---------------------------------0--------------------------------|
B|-----3---------3--------2---3------------3------3------2--3------------------|
G|-----------------4------------0------------------4-----2--0------------------|
D|---4------------------2---------0------4---------------2--0--(~)-------------|
A|-2------2----2------0-----0--------0-2-----2---2-----0----2------------------|
E|----------------------------3-----------------------------3------------------|
-|

e|---------0-------------------------------0-----------------------------------|
B|-----3-------3-------2---3-----------3-------3------2--3---------------------|
G|---------------4-----------0-------2-----------2----2--0---------------------|
D|---4---------------2---------0---0-----0---0--------2--0---------------------|
A|-2-----2---2-----0-----0--------------------------0----2---------------------|
E|-------------------------3-----3-----------------------3---------------------|


e|----------0---------------------------------0--------------------------------|
B|-----3---------3--------2---3------------3------3------2--3------------------|
G|-----------------4------------0------------------4-----2--0------------------|
D|---4------------------2---------0------4---------------2--0--(~)-------------|
A|-2------2----2------0-----0--------0-2-----2---2-----0----2------------------|
E|----------------------------3-----------------------------3------------------|
-|

e|---------0-----------------------------------------------------------------|
B|-----3-------3-------2---3-------------------------------------------------|
G|---------------4-----------0-----------------------------------------------|
D|---4---------------2---------0---------------------------------------------|
A|-2-----2---2-----0-----0---------------------------------------------------|
E|-------------------------3-----3-------------------------------------------|

distorted guitar
e|---------------------------------------------------------------------------|
B|---7-----------------------7-----------------------------------------------|
G|-----9(~)-6hbr-7(~)----------9-7-6hbr--------------------------------------|
D|-7-----------------------7------------9------------------------------------|
A|---------------------------------------------------------------------------|
E|---------------------------------------------------------------------------|


e|---------------------------------------------------------------------------|
B|---7-----------------------7-----------------------------------------------|
G|-----9(~)-6hbr-7(~)----------9-7-6hbr--------------------------------------|
D|-7-----------------------7------------9------------------------------------|
A|---------------------------------------------------------------------------|
E|---------------------------------------------------------------------------|

e|---------------------------------------------------------------------------|
B|---------------------------------------------------------------------------|
G|--------7-9(~)---6---9-7-----7-9^-7-6-------7-9^---------------------------|
D|--7/9-9-------/8---8-----7/9----------9-7-9--------------------------------|
A|---------------------------------------------------------------------------|
E|---------------------------------------------------------------------------|

e|------------------------------------------7--------------------------------|
B|---------------------------10-------------7----7---10------9----10---7^----|
G|----6-----6---6/7-9(~)--9b----9br-7---------/9---9----9------/9----9-7^----|
D|-/8---8-9---8--------------------------9^---------------9^-----------------|
A|---------------------------------------------------------------------------|
E|---------------------------------------------------------------------------|

e|--7(~)---------------------------------------------------------------------|
B|-(7)-----7---10------/7-10^-8^---/7-----------------/7---------------------|
G|-(7)--/9---9----9--------------7----9-7-6--------------9-7-6hb-7-----------|
D|------------------9^----------------------9-7-----0--------------------0---|
A|----------------------------------------------10^--------------------------|
E|---------------------------------------------------------------------------|

e|---------------------------------------------------------------------------|
B|--/7-------------------------/7--------------------------------------------|
G|-----9-7-6----------------------9-7-6--------------------------------------|
D|-----------9-7------------0-----------9-7-------------7-(~)----------------|
A|---------------10^-(10)^------------------10-9-10hbr--5-(~)----------------|
E|---------------------------------------------------------------------------|

| ^  tremolo dive and release
| >  tremolo release
| <  tremolo dive
| [] artificial harmonic
|pbr pre-bend release
| pb pre-bend
| hb half bend
| r bend release
| b  Full Bend
| *  Palm Mute
| /  slide up
| \  slide down
| h  hammer-on
| p  pull-off
| ~  vibrato
| +  natural harmonic
| x  Mute note
===============================================================================
this is it, its not 100% correct (maybe 90% :D) if you have any doubts mail me ;)





Comments


Popular Xutos And Pontapes tabs & chords
Poo Da Salvao Bass Tabs
Amor Com Paixao Chords
Contentores 1 Chords
Homem Do Leme Chords
Perfeito Vazio Chords
Voar Chords
Mundo Ao Contrario Tabs
Gritos Mudos Ukulele
O Falcao Ukulele
O Santo E A Senha Ukulele


Song lyrics



↑ Back to top | Tablatures and chords are parodies/interpretations of the original songs. You may use it for private study, scholarship, research or language learning purposes only
© 2014 AZChords.com Contact us | Privacy policy | DMCA | Add/correct tabs | Request tabs | Top 50 tabs