» » »

Xutos And Pontapes, Contentores Bass tabs (ver.1)

Artists:  A B C D E F G H I J K L M N O P Q R S T U V W X Y Z # 

Contentores Bass tabs (ver.1)

Xutos And Pontapes Tabs
 Rating:
4/5 (4 votes)
Contentores lessons Tabs too difficult? Try these video lessons and learn fast
                MUSIC:CONTENTORES (Circo de Feras,1987 Polygram Track 01 03:54)
BASS PLAYER:TIM

Riff 1
E-0-0-0-0-0-0-0-0-0-0-0-0-0-0-0-0-|
A---------------------------------|
D---------------------------------|
G---------------------------------|

Riff 2
E-5-5-5-5-5-5-5-5-5-5-5-5-5-5-5-5-5-5-5-5-5-5-5-5-5-5-5-5-5-5-|
A-------------------------------------------------------------|
D-------------------------------------------------------------|
G-------------------------------------------------------------|

Riff 3
E-----------------|
A-5-5-5-5-5-5-5-5-|
D-----------------|
G-----------------|

Riff 4
E-5-5-5-5-5-5-5---------------0-0-0-0-5-5-5-5-5-5-5-5-----------------|
A---------------5-4-2-2-2-2-2-------------------------5-4-2-2-2-2-2-2-|
D---------------------------------------------------------------------|
G---------------------------------------------------------------------|

Riff 5
E-0-0-0-0-5-5-5-5-5-5-5-5-------------------------5-5-5-5-5-5-5-5-----------------|
A-------------------------2-4-5-7-7-7-7-7-7-7-7-7-----------------5-4-2-2-2-2-2-2-|
D---------------------------------------------------------------------------------|
G---------------------------------------------------------------------------------|

Riff 6
E-------------------|
A-3-3-3-3-----------|
D-----------3-3-3-3-|
G-------------------|

Riff 7
E-------------------|
A-7-----------------|
D---5-5-5-5-3-3-3-3-|
G-------------------|

Riff 8
E0-0-0-0-0-0-0-0-5-5-5-5-5-5-5-5-5-5-5-5-5-5-5-5----------------------------------------------------|
A------------------------------------------------------------5-5-5-5-5-5-5-5-5-5-7-7-7-7-7-7-7-7-7-7|
D---------------------------------------------------------------------------------------------------|
G---------------------------------------------------------------------------------------------------|

Riff 9
E-5-5-5-5-5-5-5-5-5-5-5-5-5-5-5-5-------------------------------------------------|
A-----------------------------------------5-5-5-5-5-5-5-5-5-5-7-7-7-7-7-7-7-7-7-7-|
D---------------------------------------------------------------------------------|
G---------------------------------------------------------------------------------|

Riff 10
E-5-5-5-5-5-5-5-5-5-5---------------------------------|
A-------------------------2-4-5-5-5-5-7-7-7-7-7-7-7-7-|
D-----------------------------------------------------|
G-----------------------------------------------------|

Riff 11
E-5-5-5-5-5-5-5-5-5-5---------------------------|
A-------------------------2-4-5-5-5-5-5-7-7-7-7-|
D-----------------------------------------------|
G-----------------------------------------------|

Riff 1 1x (00:40)
Riff 2 1x (00:47)
Riff 3 1x (01:00)
Riff 2 1x (01:03)
Riff 3 1x (01:12)
Riff 4 1x (01:16)
Riff 5 1x (01:34)
Riff 6 4x (01:48)
Riff 2 1x (02:03)
Riff 3 1x (02:15)
Riff 2 1x (02:20)
Riff 7 2x (02:28)
Riff 4 1x (02:32)
Riff 5 1x (02:45)
Riff 8 1x (03:00)
Riff 9 1x (03:18)
Riff 10 1x (03:34)
Riff 11 1x (03:41)
            
Submit corrections

comments powered by Disqus
↑ Back to top | Xutos And Pontapes Bass for Contentores. Lyrics for acoustic guitar and electric guitar. Tablatures and chords are parodies/interpretations of the original songs. You may use it for private study, scholarship, research or language learning purposes only