» » »

Xutos And Pontapes, Casinha Bass tabs (ver.1)

Artists:  A B C D E F G H I J K L M N O P Q R S T U V W X Y Z # 

Casinha Bass tabs (ver.1)

Xutos And Pontapes Tabs
Rating:
0/5 (0 votes)
Casinha lessons Tabs too difficult? Try these video lessons and learn fast
                Xutos & Pontapés: Casinha

Intro/Verse/Chorus

G|----------------------------------------------------------------------------------|
D|----------------------------------------------------------------------------------|    riff1
A|-4/5-5-5-5-5-5-5-4/5-5-5-5-5-5-5-4/5-5-5-5-5-5-5-4/5-5-5-5-5-5-5-4/5-5-5-5-5-5-5--|
E|----------------------------------------------------------------------------------|            
                                                          As saudades  que  eu  já

       



G|--------------------------------------------------------------------------------|
D|--------------------------------------------------------------------------------|riff2
A|-4-4-4-4-4-4-4-4-3-3-3-3-3-3-3-3-2-2-2-2-2-2-2-2-2-2-2-2-2-2-2-2----------------|
E|--------------------------------------------------------------------------------|
   tinha da minh__a alegre     ca__sinha  tão  modesta      quanto               


G|----------------------------------------------------------------------------------------|
D|----------------------------------------------------------------------------------------|riff3
A|-----------------------------5-7-7-7-7-7-7-7-7-7-7-5-5-4-4------------------------------|
E|-0-0-0-0-0-0-0-0-0-0-0-0-0-0-------------------------------7-7-5-5-5-5-5-5-5-5----------|
   eu                                  Meu Deus como é bom mor__ar...
                                       "Lá Lá Lá Lá Lá Lá Lá Lá Lá..."


    
G|---------------------------------------------------------------------------|
D|---------------------------------------------------------------------------|
A|-------------4-4-----------------------------------------------------------|riff4
E|-5-5-5-5-5-5-----3-3-3-3-3-3-3-3-5-5-5-------------------------------------|

            ...andar  a     contar      vin_do  do   céu   


solo

G|------------------------------------------------------------------------|
D|------------------------------------------------------------------------|riff5
A|-5-5-5-55-5-------------------------------------------------------------|
E|------------5--5-55-----------------------------------------------------|
            

comments powered by Disqus
↑ Back to top | Xutos And Pontapes Bass for Casinha. Lyrics for acoustic guitar and electric guitar. Tablatures and chords are parodies/interpretations of the original songs. You may use it for private study, scholarship, research or language learning purposes only