» » »

Statue Of Liberty Bass tabs (ver.1)

Artists:  A B C D E F G H I J K L M N O P Q R S T U V W X Y Z # 

Statue Of Liberty Bass tabs (ver.1)

Xtc
Rating:
0/5 (0 votes)

Hard to play? Try these video lessons and learn fast.
                Listen to the song to get the timing right, I doubt I incorporated the proper timing in 
this tab. Also, Listen to the song closely to make sure I got it right; I may have made mistakes.

Verse and Chorus:

G---------------------------------------------|
D---------------------------------------------|
A-3-3----------------3-3----------------------|
E-----3--3-5-5--3--3------3--3-5-5-5--3---3---|

Pre-Chorus:

G-------------------------------------------------|
D-------------------------------------------------|
A-----------------2-2-2-2-3-3-3-3-5-5-5-5-7-7-7-7-|
E-5-3-5-0---5-3-5---------------------------------|



Interlude:

D------------------------------------|
G------------------------------------|
A-3-3--2-2-2-1-1--2-2-3-3--2-2-2-1-1-|
E------------------------------------|

D------------------------------------|
G------------------------------------|
A-5-5--4-4-4-2-2--2--2-5-5-5--3-3/12-|
E------------------------------------|

Listen to the song to hear how many times you must play the 12th fret

The ending is the same or is very close to the first part of the interlude.

- Gargoyle2500
            
Hard to play? Try these video lessons and learn fast. | Correct




comments powered by Disqus
↑ Back to top | Tablatures and chords are parodies/interpretations of the original songs. You may use it for private study, scholarship, research or language learning purposes only