» » »

Oh Bondage, Up Yours! Tabs (ver.2)

Artists:  A B C D E F G H I J K L M N O P Q R S T U V W X Y Z # 

Oh Bondage, Up Yours! Tabs (ver.2)

X-ray Spex
Rating:
0/5 (0 votes)

Hard to play? Try these video lessons and learn fast.
                this is repeated through the whole song

D5               C5
|--------------------------------|
|--------------------------------|
|7-7-7-7-7-7-7-7-5-5-5-5-5-5-5-5-|
|7-7-7-7-7-7-7-7-5-5-5-5-5-5-5-5-|
|5-5-5-5-5-5-5-5-3-3-3-3-3-3-3-3-|
|--------------------------------|

G5               A5
|--------------------------------|
|--------------------------------|
|--------------------------------|
|5-5-5-5-5-5-5-5-7-7-7-7-7-7-7-7-|
|5-5-5-5-5-5-5-5-7-7-7-7-7-7-7-7-|
|3-3-3-3-3-3-3-3-5-5-5-5-5-5-5-5-|

sorry, no solo

here's the lyrics:

[spoken interclude]
Some people think little girls
Should be seen and not heard
But I think, Oh Bondage, Up Yours!

1-2-3-4

Bind me tie me
Chain me to the wall I wanna be a slave
To you all

Oh bondage up yours
Oh bondage no more
Oh bondage up yours
Oh bondage no more

Chain-store chain-smoke
I consume you all
Chain-gang chain-mail
I don't think at all

Oh bondage up yours
Oh bondage no more
Oh bondage up yours
Oh bondage no more

Thrash me crash me
Beat me till I fall
I wanna be a victim
For you all

Oh bondage up yours
Oh bondage no more
Oh bondage up yours
Oh bondage no more 
            
Hard to play? Try these video lessons and learn fast. | Correct




comments powered by Disqus
↑ Back to top | Tablatures and chords are parodies/interpretations of the original songs. You may use it for private study, scholarship, research or language learning purposes only