» » »

Obsessed With You Tabs (ver.1)

Artists:  A B C D E F G H I J K L M N O P Q R S T U V W X Y Z # 

Obsessed With You Tabs (ver.1)

X-ray Spex
Rating:
0/5 (0 votes)

Hard to play? Try these video lessons and learn fast.
                X-Ray Spex - Obsessed with you

Intro (Riff 2x) & Verse (Riff 2x) & Sax Solo (Riff 2x)
  1   2   3   4    
e:----------------|----------------|----------------|----------------|
b:----------------|----------------|----------------|----------------|
g:----------------|----7-7---7-7---|----------------|----7-7---7-7---|
d:7-7-7-7-7-7-7-7-|7-7-7-7---7-7---|7-7-7-7-7-7-7-7-|7-7-7-7---7-7---|
a:7-7-7-7-7-7-7-7-|7-7-5-5---5-5---|7-7-7-7-7-7-7-7-|7-7-5-5---5-5---|
e:5-5-5-5-5-5-5-5-|5-5-------------|5-5-5-5-5-5-5-5-|5-5-------------|
  PM__________________              PM___________________

e:----------------|----------------|----------------|----------------|
b:----------------|----------------|----------------|----------------|
g:----------------|----7-7---7-7---|5---------------|7---------------|
d:7-7-7-7-7-7-7-7-|7-7-7-7---7-7---|5---------------|7---------------|
a:7-7-7-7-7-7-7-7-|7-7-5-5---5-5---|3---------------|5---------------|
e:5-5-5-5-5-5-5-5-|5-5-------------|----------------|----------------|
  PM__________________

Chorus:
e:----------------|----------------|----------------|----------------|
b:----------------|----------------|----------------|----------------|
g:7-----7---------|5---7---5---7---|7-----7---------|7b--7b--7b--7b--|
d:7-----7---------|----------------|7-----7---------|----------------|
a:5-----5---------|----------------|5-----5---------|----------------|
e:----------------|----------------|----------------|----------------|

e:----------------|----------------|----------------|----------------|
b:----------------|----------------|----------------|----------------|
g:7-----7---------|5---7---5---7---|7-----7---------|9b--9b--9b--9b--|
d:7-----7---------|----------------|7-----7---------|----------------|
a:5-----5---------|----------------|5-----5---------|----------------|
e:----------------|----------------|----------------|----------------|

Intro
Verse
Chorus
Verse 
Chorus
Sax Solo
Chorus
Verse 
Chorus
            
Hard to play? Try these video lessons and learn fast. | Correct




comments powered by Disqus
↑ Back to top | Tablatures and chords are parodies/interpretations of the original songs. You may use it for private study, scholarship, research or language learning purposes only