>
 >
Identity

Identity Guitar Tabs

X-ray Spex - Identity chords, tabs, tablatures, lyrics

Guitar lessons | Add/correct | Request | Top 50 tabs Artists:  A B C D E F G H I J K L M N O P Q R S T U V W X Y Z 0-9

Identity Guitar Tabs – X-ray Spex

CD, Sheet music, Poster

Do you like Identity? Share with your friends now
ChordsTabsUkulele
        



Gtr I (E A D G B E) - 'Rhythm Guitar'
Gtr II (E A D G B E) - 'Lead Guitar'
Gtr III (E A D G B E) - 'Brass'

  Q=150
 4/4
  Gtr I
  Q  Q  E E Q    Q  Q  E E Q    Q  Q  E E Q    E E E E E E Q
|--------------|--------------|--------------|------------------|
|--------------|--------------|--------------|------------------|
|--------------|--------------|--------------|-9-9-9-9-9-9-9\---|
|-7--7--7-7-7--|-5--5--5-5-5--|-3--3--3-3-3--|-9-9-9-9-9-9-9\---|
|-7--7--7-7-7--|-5--5--5-5-5--|-3--3--3-3-3--|-7-7-7-7-7-7-7\---|
|-5--5--5-5-5--|-3--3--3-3-3--|-1--1--1-1-1--|------------------|


  Q   Q   E  E   Q     Q   Q   E  E   Q
|--------------------|--------------------|
|--------------------|--------------------|
|--------------------|--------------------|
|-7---7---7--7---7---|-5---5---5--5---5---|
|-7---7---7--7---7---|-5---5---5--5---5---|
|-5---5---5--5---5---|-3---3---3--3---3---|
|
| Gtr III
| q   q   E  E  +Q     q   q   E  E  +Q
|----12--10-12-(12)--|----12--10-12-(12)--|
|-5--13--12-13-(13)--|-5--13--12-13-(13)--|
|-5------------------|-5------------------|
|--------------------|--------------------|
|--------------------|--------------------|
|--------------------|--------------------|


  Q   Q   E  E   Q       E E  E  E   E  E  Q
|--------------------|-------------------------|
|--------------------|-------------------------|
|--------------------|---9-9--9--9---9--9--9\--|
|-3---3---3--3---3---|---9-9--9--9---9--9--9\--|
|-3---3---3--3---3---|---7-7--7--7---7--7--7\--|
|-1---1---1--1---1---|-------------------------|
|
| q   q   E  E  +Q       Q    E  E  +Q     Q
|----12--10-12-(12)--|-/13---12-10-(10)--------|
|-5--13--12-13-(13)--|-/15---13-12-(12)---10\--|
|-5------------------|---------------------9\--|
|--------------------|-------------------------|
|--------------------|-------------------------|
|--------------------|-------------------------|


    $                                                         To Coda
    Q  Q  E E Q    Q    Q    E E Q     Q  Q  E E Q    E E E E E E Q
||---------------|-------------------|--------------|-------------------||
||o--------------|-------------------|--------------|------------------o||
||---------------|-------------------|--------------|-9-9-9-9-9-9-9\----||
||--7--7--7-7-7--|-5----5----5-5-5---|-3--3--3-3-3--|-9-9-9-9-9-9-9\----||
||o-7--7--7-7-7--|-5----5----5-5-5---|-3--3--3-3-3--|-7-7-7-7-7-7-7\---o||
||--5--5--5-5-5--|-3----3----3-3-3---|-1--1--1-1-1--|-------------------||
|
|   Gtr II
|   W              E  E E E  E E E E   W              W
||---------------|-------------------|--------------|-------------------||
||o--------------|-------------------|--------------|------------------o||
||---------------|-------------------|--------------|-------------------||
||---------------|-------------------|--------------|-------------------||
||o--------------|---/3-2-0-/3-2-----|--------------|------------------o||
||---------------|---------------3-2-|-1------------|-------------------||


    Q   Q   E  E   Q     Q   Q   E  E   Q
||---------------------|--------------------|
||o--------------------|--------------------|
||---------------------|--------------------|
||--7---7---7--7---7---|-5---5---5--5---5---|
||o-7---7---7--7---7---|-5---5---5--5---5---|
||--5---5---5--5---5---|-3---3---3--3---3---|
|
|   Gtr III
|   q   q   E  E  +Q     q   q   E  E  +Q
||-----12--10-12-(12)--|----12--10-12-(12)--|
||o-5--13--12-13-(13)--|-5--13--12-13-(13)--|
||--5------------------|-5------------------|
||---------------------|--------------------|
||o--------------------|--------------------|
||---------------------|--------------------|


  Q   Q   E  E   Q       E E  E  E   E  E  Q
|--------------------|---------------------------||
|--------------------|--------------------------o||
|--------------------|---9-9--9--9---9--9--9\----||
|-3---3---3--3---3---|---9-9--9--9---9--9--9\----||
|-3---3---3--3---3---|---7-7--7--7---7--7--7\---o||
|-1---1---1--1---1---|---------------------------||
|
| q   q   E  E  +Q       Q    E  E  +Q     Q
|----12--10-12-(12)--|-/13---12-10-(10)----------||
|-5--13--12-13-(13)--|-/15---13-12-(12)---10\---o||
|-5------------------|---------------------9\----||
|--------------------|---------------------------||
|--------------------|--------------------------o||
|--------------------|---------------------------||


   Q    Q    E  E  Q      Q    Q     E E  Q
|----------------------|-----------------------|
|----------------------|-----------------------|
|----------------------|-----------------------|
|--7----7----7--7--7---|--5----5-----5-5--5----|
|--7----7----7--7--7---|--5----5-----5-5--5----|
|--5----5----5--5--5---|--3----3-----3-3--3----|
|
| Gtr III
|  E E  E  E E  E  E E    E  E E  E  E E  E  E
|--8-7-----8-7-----8-7-|-----8-7-----8-7-----8-|
|-10-8-10-10-8-10-10-8-|-10-10-8-10-10-8-10-10-|
|-------9-------9------|--9-------9-------9----|
|----------------------|-----------------------|
|----------------------|-----------------------|
|----------------------|-----------------------|


                              D.S. al Coda
  Q     Q    E  E Q       E  E E  E E E E E
|----------------------|--------------------|
|----------------------|--------------------|
|----------------------|--------------------|
|-3-----3----3--3-3----|--------------------|
|-3-----3----3--3-3----|--------------------|
|-1-----1----1--1-1----|--0--0-2--2-3-3-2-1-|
|
| E  E  E E  E  E E  E    Q    H.
|-7-----8-7-----8-7----|-/7\----------------|
|-8-10-10-8-10-10-8-10-|-/8\----------------|
|----9-------9-------9-|--------------------|
|----------------------|--------------------|
|----------------------|--------------------|
|----------------------|--------------------|


  &
  Q   Q   E  E   Q     Q   Q   E  E   Q
|--------------------|--------------------|
|--------------------|--------------------|
|--------------------|--------------------|
|-7---7---7--7---7---|-5---5---5--5---5---|
|-7---7---7--7---7---|-5---5---5--5---5---|
|-5---5---5--5---5---|-3---3---3--3---3---|
|
| Gtr III
| q   q   E  E  +Q     q   q   E  E  +Q
|----12--10-12-(12)--|----12--10-12-(12)--|
|-5--13--12-13-(13)--|-5--13--12-13-(13)--|
|-5------------------|-5------------------|
|--------------------|--------------------|
|--------------------|--------------------|
|--------------------|--------------------|


  Q   Q   E  E   Q       E E  E  E   E  E  E  E
|--------------------|--------------------------|
|--------------------|--------------------------|
|--------------------|--------------------------|
|-3---3---3--3---3---|--------------------------|
|-3---3---3--3---3---|--------------------------|
|-1---1---1--1---1---|---0-0--2--2---3--3--2--1-|
|
| q   q   E  E  +Q       Q    E  E  +Q     Q
|----12--10-12-(12)--|-/13---12-10-(10)---------|
|-5--13--12-13-(13)--|-/15---13-12-(12)---10\---|
|-5------------------|---------------------9\---|
|--------------------|--------------------------|
|--------------------|--------------------------|
|--------------------|--------------------------|


  Q   Q   E  E   Q     Q   Q   E  E   Q
|--------------------|--------------------|
|--------------------|--------------------|
|--------------------|--------------------|
|-3---3---3--3---3---|-5---5---5--5---5---|
|-3---3---3--3---3---|-5---5---5--5---5---|
|-1---1---1--1---1---|-3---3---3--3---3---|
|
| q   q   E  E  +Q     q   q   E  E  +Q
|----12--10-12-(12)--|----12--10-12-(12)--|
|-5--13--12-13-(13)--|-5--13--12-13-(13)--|
|-5------------------|-5------------------|
|--------------------|--------------------|
|--------------------|--------------------|
|--------------------|--------------------|


   PM----------|              PM-----|
   E  E E  E E  E Q      Q    E  E E  E Q
|----------------------|--------------------|
|----------------------|--------------------|
|----------------------|--------------------|
|--7--7-7--7-7--7-5s===|=7----7--7-7--7-5---|
|--7--7-7--7-7--7-5s===|=7----7--7-7--7-5---|
|--5--5-5--5-5--5-3s===|=5----5--5-5--5-3---|
|
| Gtr III
|  E  E E  E E  E E  E   E  E E  E E  E Q
|----------------------|--------------------|
|-10-10---10---10---10-|---10---10---10-----|
|-------9---------9----|------9---------9\--|
|--7--7----7----7----7-|----7----7----7-----|
|-------7---------7----|------7---------7\--|
|----------------------|--------------------|


  Q   Q   E  E   Q     Q   Q   E  E   Q
|--------------------|--------------------|
|--------------------|--------------------|
|--------------------|--------------------|
|-3---3---3--3---3---|-5---5---5--5---5---|
|-3---3---3--3---3---|-5---5---5--5---5---|
|-1---1---1--1---1---|-3---3---3--3---3---|
|
| q   q   E  E  +Q     q   q   E  E  +Q
|----12--10-12-(12)--|----12--10-12-(12)--|
|-5--13--12-13-(13)--|-5--13--12-13-(13)--|
|-5------------------|-5------------------|
|--------------------|--------------------|
|--------------------|--------------------|
|--------------------|--------------------|


   PM----------|              PM-----|
   E  E E  E E  E Q      Q    E  E E  E Q
|----------------------|--------------------|
|----------------------|--------------------|
|----------------------|--------------------|
|--7--7-7--7-7--7-5s===|=7----7--7-7--7-5---|
|--7--7-7--7-7--7-5s===|=7----7--7-7--7-5---|
|--5--5-5--5-5--5-3s===|=5----5--5-5--5-3---|
|
| Gtr III
|  E  E E  E E  E E  E   E  E E  E E  E Q
|----------------------|--------------------|
|-10-10---10---10---10-|---10---10---10-----|
|-------9---------9----|------9---------9\--|
|--7--7----7----7----7-|----7----7----7-----|
|-------7---------7----|------7---------7\--|
|----------------------|--------------------|


  PM--------------|
  E E   E  E   E  E  Q     Q    Q      E  E  Q
|------------------------|-----------------------|
|------------------------|-----------------------|
|------------------------|-----------------------|
|-7-7---7--7---7--7--7s==|=5----5------5--5--5---|
|-7-7---7--7---7--7--7s==|=5----5------5--5--5---|
|-5-5---5--5---5--5--5s==|=3----3------3--3--3---|
|
| Q     E  E  +Q     Q     Q    E  E  +Q     Q
|----------8--(8)--------|---------8--(8)--------|
|-----/10-10-(10)---10\--|----/10-10-(10)---10\--|
|--------------------9\--|-------------------9\--|
|------------------------|-----------------------|
|------------------------|-----------------------|
|------------------------|-----------------------|


  Q   Q      E  E  Q     E E  E  E   E  E  Q
|----------------------|-----------------------|
|----------------------|-----------------------|
|----------------------|-9-9--9--9---9--9--9\--|
|-3---3------3--3--3---|-9-9--9--9---9--9--9\--|
|-3---3------3--3--3---|-7-7--7--7---7--7--7\--|
|-1---1------1--1--1---|-----------------------|
|
| Gtr III
| Q   E  E  +Q     Q     Q    E  E  +Q     Q
|--------8--(8)--------|---------8--(8)--------|
|----10-10-(10)---10\--|-----10-10-(10)---10\--|
|------------------9\--|-------------------9\--|
|----------------------|-----------------------|
|----------------------|-----------------------|
|----------------------|-----------------------|


    $
    Q  Q  E E Q    Q    Q    E E Q     Q  Q  E E Q    E E E E E E Q
||---------------|-------------------|--------------|-------------------||
||o--------------|-------------------|--------------|------------------o||
||---------------|-------------------|--------------|-9-9-9-9-9-9-9\----||
||--7--7--7-7-7--|-5----5----5-5-5---|-3--3--3-3-3--|-9-9-9-9-9-9-9\----||
||o-7--7--7-7-7--|-5----5----5-5-5---|-3--3--3-3-3--|-7-7-7-7-7-7-7\---o||
||--5--5--5-5-5--|-3----3----3-3-3---|-1--1--1-1-1--|-------------------||
|
|   Gtr II
|   W              E  E E E  E E E E   W              W
||---------------|-------------------|--------------|-------------------||
||o--------------|-------------------|--------------|------------------o||
||---------------|-------------------|--------------|-------------------||
||---------------|-------------------|--------------|-------------------||
||o--------------|---/3-2-0-/3-2-----|--------------|------------------o||
||---------------|---------------3-2-|-1------------|-------------------||


    Q   Q   E  E   Q     Q   Q   E  E   Q
||---------------------|--------------------|
||o--------------------|--------------------|
||---------------------|--------------------|
||--7---7---7--7---7---|-5---5---5--5---5---|
||o-7---7---7--7---7---|-5---5---5--5---5---|
||--5---5---5--5---5---|-3---3---3--3---3---|
|
|   Gtr III
|   q   q   E  E  +Q     q   q   E  E  +Q
||-----12--10-12-(12)--|----12--10-12-(12)--|
||o-5--13--12-13-(13)--|-5--13--12-13-(13)--|
||--5------------------|-5------------------|
||---------------------|--------------------|
||o--------------------|--------------------|
||---------------------|--------------------|


  Q   Q   E  E   Q       E E  E  E   E  E  Q     3x
|--------------------|---------------------------||
|--------------------|--------------------------o||
|--------------------|---9-9--9--9---9--9--9\----||
|-3---3---3--3---3---|---9-9--9--9---9--9--9\----||
|-3---3---3--3---3---|---7-7--7--7---7--7--7\---o||
|-1---1---1--1---1---|---------------------------||
|
| q   q   E  E  +Q       Q    E  E  +Q     Q     3x
|----12--10-12-(12)--|-/13---12-10-(10)----------||
|-5--13--12-13-(13)--|-/15---13-12-(12)---10\---o||
|-5------------------|---------------------9\----||
|--------------------|---------------------------||
|--------------------|--------------------------o||
|--------------------|---------------------------||


    $
    Q   Q   E  E   Q     Q     Q    E  E   Q
||---------------------|------------------------|
||o--------------------|------------------------|
||---------------------|------------------------|
||--7---7---7--7---7---|-5-----5----5--5---5----|
||o-7---7---7--7---7---|-5-----5----5--5---5----|
||--5---5---5--5---5---|-3-----3----3--3---3----|
|
|   Gtr II
|   W                    E  E  E E  E  E   E  E
||---------------------|------------------------|
||o--------------------|------------------------|
||---------------------|------------------------|
||---------------------|------------------------|
||o--------------------|---/3--2-0-/3--2--------|
||---------------------|-------------------3--2-|
|
|   Gtr III
|   q   q   E  E  +Q     q     q    E  E  +Q
||-----12--10-12-(12)--|------12---10-12-(12)---|
||o-5--13--12-13-(13)--|-5----13---12-13-(13)---|
||--5------------------|-5----------------------|
||---------------------|------------------------|
||o--------------------|------------------------|
||---------------------|------------------------|


  Q   Q   E  E   Q       E E  E  E   E  E  Q
|--------------------|---------------------------||
|--------------------|--------------------------o||
|--------------------|---9-9--9--9---9--9--9\----||
|-3---3---3--3---3---|---9-9--9--9---9--9--9\----||
|-3---3---3--3---3---|---7-7--7--7---7--7--7\---o||
|-1---1---1--1---1---|---------------------------||
|
| W                      W
|--------------------|---------------------------||
|--------------------|--------------------------o||
|--------------------|---------------------------||
|--------------------|---------------------------||
|--------------------|--------------------------o||
|-1------------------|---------------------------||
|
| q   q   E  E  +Q       Q    E  E  +Q     Q
|----12--10-12-(12)--|-/13---12-10-(10)----------||
|-5--13--12-13-(13)--|-/15---13-12-(12)---10\---o||
|-5------------------|---------------------9\----||
|--------------------|---------------------------||
|--------------------|--------------------------o||
|--------------------|---------------------------||


    Q   Q   E  E   Q     Q   Q   E  E   Q
||---------------------|--------------------|
||o--------------------|--------------------|
||---------------------|--------------------|
||--7---7---7--7---7---|-5---5---5--5---5---|
||o-7---7---7--7---7---|-5---5---5--5---5---|
||--5---5---5--5---5---|-3---3---3--3---3---|
|
|   Gtr III
|   q   q   E  E  +Q     q   q   E  E  +Q
||-----12--10-12-(12)--|----12--10-12-(12)--|
||o-5--13--12-13-(13)--|-5--13--12-13-(13)--|
||--5------------------|-5------------------|
||---------------------|--------------------|
||o--------------------|--------------------|
||---------------------|--------------------|


  Q   Q   E  E   Q       E E  E  E   E  E  Q
|--------------------|---------------------------||
|--------------------|--------------------------o||
|--------------------|---9-9--9--9---9--9--9\----||
|-3---3---3--3---3---|---9-9--9--9---9--9--9\----||
|-3---3---3--3---3---|---7-7--7--7---7--7--7\---o||
|-1---1---1--1---1---|---------------------------||
|
| q   q   E  E  +Q       Q    E  E  +Q     Q
|----12--10-12-(12)--|-/13---12-10-(10)----------||
|-5--13--12-13-(13)--|-/15---13-12-(12)---10\---o||
|-5------------------|---------------------9\----||
|--------------------|---------------------------||
|--------------------|--------------------------o||
|--------------------|---------------------------||


  Q   Q   E  E   Q     Q   Q   E  E   Q      W
|--------------------|--------------------|-------*|
|--------------------|--------------------|-------*|
|--------------------|--------------------|-------*|
|-3---3---3--3---3---|-5---5---5--5---5---|--7----*|
|-3---3---3--3---3---|-5---5---5--5---5---|--7----*|
|-1---1---1--1---1---|-3---3---3--3---3---|--5----*|
|
| q   q   E  E  +Q     q   q   E  E  +Q      W
|----12--10-12-(12)--|----12--10-12-(12)--|-------*|
|-5--13--12-13-(13)--|-5--13--12-13-(13)--|-10----*|
|-5------------------|-5------------------|--9----*|
|--------------------|--------------------|-------*|
|--------------------|--------------------|-------*|
|--------------------|--------------------|-------*|



Duration Legend
---------------
W - whole; H - half; Q - quarter; E - 8th; S - 16th; T - 32nd; X - 64th; a - acciaccatura
+ - note tied to previous; . - note dotted; .. - note double dotted
Uncapitalized letters represent notes that are staccato (1/2 duration)
Irregular groupings are notated above the duration line
Duration letters will always appear directly above the note/fret number it represents the
duration for.  Duration letters with no fret number below them represent rests.  Multi-
bar rests are notated in the form Wxn, where n is the number of bars to rest for.  Low
melody durations appear below the staff

Tablature Legend
----------------
 h   - hammer-on
 p   - pull-off
 b   - bend
 pb  - pre-bend
 r   - bend release (if no number after the r, then release immediately)
 /\  - slide into or out of (from/to "nowhere")
 s   - legato slide
 S   - shift slide
 - natural harmonic
[n]  - artificial harmonic
n(n) - tapped harmonic
 ~   - vibrato
 tr  - trill
 T   - tap
 TP  - trem. picking
 PM  - palm muting
\n/  - tremolo bar dip; n = amount to dip
 \n  - tremolo bar down
 n/  - tremolo bar up
/n\  - tremolo bar inverted dip
 =   - hold bend; also acts as connecting device for hammers/pulls
 <> - volume swell (louder/softer)
 x   - on rhythm slash represents muted slash
 o   - on rhythm slash represents single note slash

Misc Legend
-----------
 |  - bar
||  - double bar
||o - repeat start
o|| - repeat end
*|  - double bar (ending)
 :  - bar (freetime)
 $  - Segno
 &  - Coda
Tempo markers -  = BPM(8/16=s8/s16), where s8 = swing 8ths, s16 = swing 16ths





Comments


Popular X-ray Spex tabs & chords
Germfree Adolescents Bass Tabs
Germfree Adolescents Chords
Obsessed With You Chords
The Day The World Turned Dayglo Chords
Artificial Intro Tabs
Obsessed With You Tabs
The Day The World Turned Dayglo Intro Tabs
Warroir In Woolworths Tabs
Germfree Adolescents Ukulele
Identity Ukulele


Song lyrics



↑ Back to top | Tablatures and chords are parodies/interpretations of the original songs. You may use it for private study, scholarship, research or language learning purposes only
© 2014 AZChords.com Contact us | Privacy policy | DMCA | Add/correct tabs | Request tabs | Top 50 tabs