>
 >
Rose Of Pain

Rose Of Pain Guitar Tabs

X Japan - Rose Of Pain chords, tabs, tablatures, lyrics

Guitar lessons | Add/correct | Request | Top 50 tabs Artists:  A B C D E F G H I J K L M N O P Q R S T U V W X Y Z 0-9

Rose Of Pain Guitar Tabs – X Japan

CD, Sheet music, Poster

Do you like Rose Of Pain? Share with your friends now
Tabs
X Japan: Rose of Pain from album Blue Blood
Tuning: Half step down

Listening the song you will get the right way to play the rhythm

Organ intro about 45 seconds

Guitar 1:hide
Tempo:80
|------12-------------|-----------------------|--3--|-3------3--|
|-10--------13----12--|-10-13-12-10-9-12-5----|--5--|-5------5\-|
|---------------------|-----------------------|-----|-----------|
|---------------------|-----------------------|-----|-----------|
|---------------------|-----------------------|-----|-----------|
|---------------------|-----------------------|-----|-----------|

|-------------------------|-------------------------|-------------------------|
|-------------------------|-------------------------|-------------------------|
|-------0-----------0-----|-------0-----------2-----|-------0-----------0-----|
|-----2---2-------2-------|-----0---0-------0---0---|-----2---2-------2-------|
|---2-------2---2---------|---2-------2---0-------0-|---2-------2---2---------|
|-0-----------0-------0-2-|-3-----------2-----------|-0-----------0-------0-2-|

|-------------------------|-------------------------|-------------------------|
|-------------------------|-------0-----------0-----|-------0-----------0-----|
|-------0-----------2-----|-----0---0-------2---2---|-----2---2-------2-------|
|-----0---0-------0-------|---2-------2---0-------0-|---2-------2---2---------|
|---2-------2---0-----0-2-|-3-----------2-----------|-0-----------0-------0-2-|
|-3-----------2-----------|-------------------------|-------------------------|


|-------------------------|-------------------------|-------------------------|
|-------0-----------0-----|-------0-----------0-----|-------------------------|
|-----0---0-------2---2---|-----0---0-------2---0---|-------0-----------0-----|
|---2-------2---0-------0-|---2-------2---4-------4-|-----2---2-------2-------|
|-3-----------2-----------|-3-----------5-----------|---2-------2---2---------|
|-------------------------|-------------------------|-0-----------0-------0-2-|

|-------------------------|-------------------------|-------------------------|
|-------------------------|-------------------------|-------------------------|
|-------0-----------2-----|-------0-----------0-----|-------0-----------2-----|
|-----0---0-------0---0---|-----2---2-------2-------|-----0---0-------0-------|
|---2-------2---0-------0-|---2-------2---2---------|---2-------2---0-----0-2-|
|-3-----------2-----------|-0-----------0-------0-2-|-3-----------2-----------|

|-------------------------|-------------------------|-------------------------|
|-------0-------------0---|-------0-----------0-----|-------0-----------0-----|
|-----0---0---------2---2-|-----2---2-------2---2---|-----0---0-------2---2---|
|---2-------0-----0-------|---2-------2---2-------2-|---2-------2---0-------0-|
|-3-----------3-2---------|-0-----------0-----------|-3-----------2-----------|
|-------------------------|-------------------------|-------------------------|

|-------------------------|-------------------------|-------------------------|
|-------0-----------0-----|-------0-----------0-----|-------0-----------------|
|-----2---2-------2---2---|-----0---0-------2---2---|-----0---0-------2-----4-|
|---2-------2---2-------2-|---2-------2---4-------4-|---2-------2---4-----4---|
|-0-----------0-----------|-3-----------5-----------|-3-----------5-----6-----|
|-------------------------|-------------------------|-------------------------|

|-------0-----------------|-------0-----0^-------|
|-----0---0-------0-----0-|-----0---0---0^-------|
|---0-------0---0-----0---|---0-------0-0^-------|
|-2-----------2-----------|-2-----------2^-------|
|-------------------2-----|----------------------|
|-------------------------|----------------------|

|---------------5-----------------|----------7--5-----------5--------|
|---------7--8--7--8--7--8--7-----|----------8--7--8--7--8--7--8--7--|
|-9----9--7--9-----9--7--9--7--7--|--9----9--------9--7--9-----9--7--|
|-9----9-----------------------9--|-10---10--------------------------|
|---------------------------------|----------------------------------|
|---------------------------------|----------------------------------|

|---------------5-----------------|----------7--5-----------5--------|---|
|---------7--8--7--8--7--8--7-----|----------8--7--8--7--8--7--8--7--|-8-|
|-9----9--7--9-----9--7--9--7--7--|--9----9--------9--7--9-----9--7--|-9-|
|-9----9-----------------------9--|-10---10--------------------------|---|
|---------------------------------|----------------------------------|---|
|---------------------------------|----------------------------------|---|

|-3----3--5--7--8--7--8-10--8--7--|-5----5--7--8-10--8-10-12-10-12--|
|-5----5--7--8-10--8-10-12-10--8--|-7----7--8-10-12-10-12-13-12-13--|
|---------------------------------|---------------------------------|
|---------------------------------|---------------------------------|
|---------------------------------|---------------------------------|
|---------------------------------|---------------------------------|

|-14-|-15--------|-----------|-------------------|---------------------|
|-15-|-17--------|-----------|----------3--------|---------------------|
|----|------9\---|-9----7----|-------------------|-7--------7----------|
|----|------9\---|-9----7----|-5-----------------|-7-------------5---4-|
|----|------7\---|-7----5----|-5-----------------|-5-------------------|
|----|-----------|-----------|-3-----------------|---------------------|

|-------------------|----|-------------------|-------------------|-------------------|
|-------------------|----|----------3--------|-------------------|-5--------7--------|
|----------5--------|----|-------------------|-7--------7--------|-5--------7--------|
|-2-----------------|-4--|-5-----------------|-7-----------------|-------------------|
|-------------------|----|-5-----------------|-5-----------------|-------------------|
|-------------------|----|-3-----------------|-------------------|-------------------|

|------7------------------|-0----7----5----3--5--2--|------7------------------|
|-8----8----8----7--8-----|-1----8----7----5--7--3--|-8----8----8----7--8-----|
|-9---------7----7--9--7--|-------------------------|-9---------7----7--9--7--|
|----------------------9--|-------------------------|----------------------9--|
|-------------------------|-------------------------|-------------------------|
|-------------------------|-------------------------|-------------------------|

|-0----7----5----3--5--2--|
|-1----8----7----5--7--3--|
|-------------------------|
|-------------------------|
|-------------------------|
|-------------------------|

|------01-320235-357532-32020--|
|-1--1313-531357-578753-531313-|
|-2--24----------------------4-|
|------------------------------|
|------------------------------|
|------------------------------| 4x

|------01-32020-------02-32020--|
|-1--1313-531313-1--1313-531313-|
|-2--24--------4-2--24--------4-|
|-------------------------------|
|-------------------------------|
|-------------------------------| 2x

|------01-32020--02320--0-0235-|-7--7--5--3--5--3--2--|---------------------------------------|
|-1--1313-531313-135313-131356-|-7--8--7--5--7--5--4--|----------8--7-----------8-10/12-10----|
|-2--24--------4------4--4-----|----------------------|-9-----9--------9-----9-------------12-|
|------------------------------|----------------------|----9--------------10------------------|
|------------------------------|----------------------|---------------------------------------|
|------------------------------|----------------------|---------------------------------------|

|------------------------------------|
|-10-------10------------------------|
|-------11----12-11-12---11-11h12-11-|
|----12------------------------------|
|------------------------------------|
|------------------------------------|

|---------------------------------------|
|----------8--7-----------8-10/12-10----|
|-9-----9--------9-----9-------------12-|
|----9--------------10------------------|
|---------------------------------------|
|---------------------------------------|

|------------------------------------|
|------------10-10/12-10----10-------|
|-11---11-12-------------12----12-11-|
|------------------------------------|
|------------------------------------|
|------------------------------------|

|----------7--5-----------7--8/10--8--7-|
|-8-----8--8--7--8-----8--8-10/12-10--8-|
|-9--9--9--------9--9--9----------------|
|----9-------------10-------------------|
|---------------------------------------|
|---------------------------------------|

|--8--------8--7-----7---------|
|-10--7-10-10----10--8---10----|
|-----7-11----12-11------11----|
|------------------------------|
|------------------------------|
|------------------------------|

|------------5--7--5-----5--------|----------------------|
|-8----7--8--7--8--7--8--7--8--7--|-8-------12---13--15--|
|-9----7--9-----------9-----9--7--|-9-------12---14--16--|
|---------------------------------|----------------------|
|---------------------------------|----------------------|
|---------------------------------|----------------------|

|-12---12-14-15--17---17-15-17--|-19-|
|-13---13-15-17--19---19-17-19--|-19-|
|-------------------------------|----|
|-------------------------------|----|
|-------------------------------|----|
|-------------------------------|----|
Tempo:190

|------------------------------|------------------------|
|------------------------------|------------------------|
|------------------------------|------------------------|
|------------------------------|------------------------|
|--------5----------5----------|-5---------7------------|
|-0--0-0-3--0-0-0-0-3--0--0-0--|-3--0-0-0--5------3--2--|

|------------------|------------|
|------------------|------------|
|------------------|------------|
|------------------|------------|
|------------------|------------|
|-0----------------|------------|

|------------------------------|------------------------|
|------------------------------|------------------------|
|------------------------------|------------------------|
|------------------------------|------------------------|
|--------5----------5----------|-5---------7------------|
|-0--0-0-3--0-0-0-0-3--0--0-0--|-3--0-0-0--5------3--2--|

|------------------|-----|
|------------------|-----|
|------------------|-12\-|
|------------------|-12\-|
|------------------|-----|
|-0----------------|-----|

|-----------------------------|---------------------------|
|-----------------------------|---------------------------|
|-9--9-9-12--9-9-9-12--9-9-9--|-12--9-9-9-9-14-----12-11--|
|-9--9-9-12--9-9-9-12--9-9-9--|-12--9-9-9-9-14-----12-11--|
|-----------------------------|---------------------------|
|-----------------------------|---------------------------| 4x

|------------------|--------------------|
|------------------|--------------------|
|-9----------------|-12-----14-----12---|
|-9----------------|-12-----14-----12---|
|------------------|--------------------|
|------------------|--------------------|

|-----|------------------|----|------------------|----|----|
|-----|------------------|----|------------------|----|----|
|*-9--|--------9----11---|-12-|--------12---11---|-7--|----|
|*-9--|--------9----11---|-12-|--------12---11---|-7--|----|
|--7--|--------7-----9---|-10-|--------10----9---|-5--|----|
|-----|------------------|----|------------------|----|----|

|---------------------|---------------------|
|---------------------|---------------------|
|-5----5----5--5------|-7----7----7--7------|
|-5----5----5--5------|-7----7----7--7------|
|-3----3----3--3------|-5----5----5--5------|
|---------------------|---------------------|

|----|------------------|----|------------------|----|----|
|----|------------------|----|------------------|----|----|
|-9--|--------9----11---|-12-|--------12---11---|-7--|----|
|-9--|--------9----11---|-12-|--------12---11---|-7--|----|
|-7--|--------7-----9---|-10-|--------10----9---|-5--|----|
|----|------------------|----|------------------|----|----|

|----|------------------|--------------------|--------------------|
|----|------------------|--------------------|--------------------|
|-9--|--------12---7----|-5------------------|-7------------------|
|-9--|--------12---7----|-5-----------5------|-7-----------7------|
|-7--|--------10---5----|-3--------7---------|-5--------9---------|
|----|------------------|--------------------|--------------------|

|--------------------|--------------------|----|----|----|
|--------------------|--------------------|----|----|----|
|--------------------|--------------------|----|----|-7--|
|-4-----------4------|-5--------5----4----|-7--|-7--|-7--|
|-6--------6---------|-7--------7----5----|-7--|-7--|-5--|
|--------------------|--------------------|-5--|-5--|----|

|---------------------|--------------------|
|---------------------|--------------------|
|-4--------4--2----4--|-5------------------|
|-4--------4--2----4--|-5-----------5------|
|-2-------------------|-3--------7---------|
|---------------------|--------------------|

|--------------------|--------------------|----|----|----|----|
|--------------------|--------------------|----|----|----|----|
|-7------------------|--------------------|----|-10-|----|-12-|
|-7-----------7------|-4-----------4------|-5--|-10-|----|-12-|
|-5--------9---------|-6--------6---------|-7--|--8-|----|-10-|
|--------------------|--------------------|----|----|----|----|

|--------------------|----|---------------------|----|----|----|
|--------------------|----|-5----3--------------|----|----|-3--|
|--------------------|-5--|-5----4----5----4----|----|----|-4--|
|--------------------|-7--|-----------7----5----|-7--|----|----|
|--------------------|----|---------------------|-8--|----|----|
|--------------------|----|---------------------|----|----|----|

|---------------------|----|----|----|---------------------|
|----------------3----|-5--|-5--|----|-5----3--------------|
|-4----2----4----4----|-5--|-4--|-5--|-5----4----5----4----|
|-5----3----5---------|----|----|-7--|-----------7----5----|
|---------------------|----|----|----|---------------------|
|---------------------|----|----|----|---------------------|

|----|------------------|-------------------|----|----|----|----|
|----|-------------5----|-3-----------------|----|----|----|----|
|-2--|--------2----5----|-4------------5----|-4--|-2--|-4--|-5--|
|-3--|--------3---------|--------------7----|-6--|-3--|-5--|-7--|
|----|------------------|-------------------|----|----|----|----|
|----|------------------|-------------------|----|----|----|----|

|---------------------|----|----|----|---------------------|----|----|
|-5----3--------------|----|-3--|----|-5----3--------------|----|-3--|
|-5----4----5----4----|-5--|-4--|-5--|-5----4----5----4----|-5--|-4--|
|-----------7----5----|-7--|----|-7--|-----------7----5----|-7--|----|
|---------------------|----|----|----|---------------------|----|----|
|---------------------|----|----|----|---------------------|----|----|

Goal 1

|-------------------------|----------------------0--| |
|----1--0--1--3--1--0--1--|----1--0--1--3--1--3--1--| |
|-2--2--1--2--4--2--0--2--|-2--2--1--2--4--2--4-----| |
|-2-----------------------|-2-----------------------| |
|-------------------------|-------------------------| |
|-------------------------|-------------------------| |
                                                      | 2x
|-2--0--2--3--5--7--8-10--|-12-|                      |
|-3--1--3--5--7--8-10-12--|-13-|                      |
|-------------------------|----|                      |
|-------------------------|----|                      |
|-------------------------|----|                      |
|-------------------------|----|                      |

|-1--0-----5--3--2--0--2--|-3--1--0-----------------|
|-3--1--3--7--5--3--1--3--|-5--3--1--3--1-----------|
|-------3-----------------|----------3--2--3--2--0--|
|-------------------------|----------------4--4--2--|
|-------------------------|-------------------------|
|-------------------------|-------------------------|

|-------------------------|----------0--2--0--2--3--|
|-------------------------|-0--2--3--2--3--1--3--5--|
|-------------0-----0--2--|-0--2--4-----------------|
|-2--0--2--4--2--4--2--3--|-------------------------|
|-4--2--3--5-----5--------|-------------------------|
|-------------------------|-------------------------|

|--------------------------|--------------------------|
|--------------------------|----------15-13-12-13-15--|
|-14-12-10-------14-12-14--|-15-14-12-15-14-12-14-15--|
|-15-14-12-14-12-15-14-15--|-17-15-14-----------------|
|----------15-13-----------|--------------------------|
|--------------------------|--------------------------|

|-12-------12----------12--|-14-13-14-15-14-13-12-----|
|-14-14----14-15-14-15-14--|-15-15-15-17-15-15-14-14--|
|----14-14----15-14-15-----|----------------------14--|
|--------------------------|--------------------------|
|--------------------------|--------------------------|
|--------------------------|--------------------------|

|----------------------|----------------12-13-15--|
|-15---------------10--|----------13-15-13-15-17--|
|-15---------12-14-12--|-12-14-15-14-15-----------|
|------------13-15-----|-14-15-15-----------------|
|----------------------|--------------------------|
|----------------------|--------------------------|

|-13-------12--------|-10-------12--------|
|-15-------14--------|-12-------14--------|
|--------------------|--------------------|
|--------------------|--------------------|
|--------------------|--------------------|
|--------------------|--------------------|

|-13-------------------|----------------12-13-15--|
|-15-------------------|-------11-13-15-13-15-17--|
|------------------10--|-12-14-12-14-15-----------|
|------------12-14-12--|-14-15--------------------|
|------------13-15-----|--------------------------|
|----------------------|--------------------------|

|-17-------15--------|-13-------12--------|
|-18-------17--------|-15-------13--------|
|--------------------|--------------------|
|--------------------|--------------------|
|--------------------|--------------------|
|--------------------|--------------------|

|-15h17--15h17--15h17--15h17--|
|-----------------------------|
|-----------------------------|
|-----------------------------|
|-----------------------------|
|-----------------------------| 4x

|-9h10-9h10-9h10-9h10--|-9h10-9h10-9h10--17----|
|----------------------|-----------------------|
|----------------------|-----------------------|
|----------------------|-----------------------|
|----------------------|-----------------------|
|----------------------|-----------------------|

|----------15--------|-13-------12--------|
|-15-------13--------|-11-------13--------|
|--------------------|--------------------|
|--------------------|--------------------|
|--------------------|--------------------|
|--------------------|--------------------|

|-14---17---15---14----|-15\---------------|
|-15---19---17---15----|-17\---------------|
|----------------------|-------------------|
|----------------------|-------------------|
|----------------------|-------------------|
|----------------------|-------------------|

|--------------------|-------12--------|
|--------------------|-----------------|
|--------------------|-----------------|
|--------------------|-----------------|
|--------------------|-----------------|
|--------------------|-----------------|

|-------15\-------|--------------------|
|-----------------|--------------------|
|-----------------|--------------------|
|-----------------|--------------------|
|-----------------|--------------------|
|-----------------|--------------------|

|--------------------|-/12----------------|----|
|--------------------|----------11--------|----|
|--------------------|--------------------|----|
|--------------------|--------------------|----|
|--------------------|--------------------|----|
|--------------------|--------------------|----|

|--------------------|----|----|-5--|--------------------|
|--------------------|-5--|-8--|----|--------------------|
|--------------------|----|----|----|--------------------|
|--------------------|----|----|----|--------------------|
|--------------------|----|----|----|--------------------|
|--------------------|----|----|----|--------------------|

|----|----|-5--|-12---------------|--------------------|
|-5--|-8--|----|------------------|--------------------|
|----|----|----|------------------|-------------------*|
|----|----|----|------------------|-------------------*|
|----|----|----|------------------|--------------------|
|----|----|----|------------------|--------------------|

Goal 2
|----|---------------------|----|----| 
|----|-5----3--------------|----|-3--| 
|-5--|-5----4----5----4----|-5--|-4--|
|-7--|-----------7----5----|-7--|----|
|----|---------------------|----|----|
|----|---------------------|----|----| 2x

|--8-|-7-------------7----|--8-------10--------|
|-10-|-9-------10----9----|-10-------12--------|
|----|---------10---------|--------------------|
|----|--------------------|--------------------|
|----|--------------------|--------------------|
|----|--------------------|--------------------|

|-7-------------7----|--8-|-7--------5----7----|
|-9-------10----9----|-10-|-9--------6----8----|
|---------10---------|----|--------------------|
|--------------------|----|--------------------|
|--------------------|----|--------------------|
|--------------------|----|--------------------|

|--8--------7----8----|-10--------8---10----|
|-10--------8---10----|-12-------10---12----|
|---------------------|---------------------|
|---------------------|---------------------|
|---------------------|---------------------|
|---------------------|---------------------|

Tempo:80
|--8-|----|--------------------|--------------------|
|-10-|----|--------------------|--------------------|
|----|----|--------------------|--------------------|
|----|----|--------------------|--------------------|
|----|----|--------------------|--------------------|
|----|----|--------------------|--------------------|

|--8---12----8----7--8--7--|-5---12---10----8-10--7--|
|-10---13----8----8-10--8--|-6---13---12---10-12--8--|
|--------------------------|-------------------------|
|--------------------------|-------------------------|
|--------------------------|-------------------------|
|--------------------------|-------------------------| 2x

|-5---12---10----8-10--7--|-5----7----8---10--8--7--|
|-5---13---12---10-12--8--|-7----8---10---12-10--8--|
|-------------------------|-------------------------|
|-------------------------|-------------------------|
|-------------------------|-------------------------|
|-------------------------|-------------------------| 2x

|-------------------------0-----0--2--|
|-------------------1--3--1--3--1--3--|
|----------7--------2--4-----4--------|
|-7--9-10----10--9--------------------|
|-------------------------------------|
|-------------------------------------|

|-0--2--3--2--3--5--3--5--7--5--7--8--|
|-1--3--5--3--5--7--5--7--8--7--8-10--|
|-------------------------------------|
|-------------------------------------|
|-------------------------------------|
|-------------------------------------|

|-7--8-10--8-10-12-10-12-14-12-14-15--|
|-8-10-12-10-12-13-12-13-15-12-15-17--|
|-------------------------------------|
|-------------------------------------|
|-------------------------------------|
|-------------------------------------|

|-14-15-17-15-17-19-17-19-20-19-20-22--|
|--------------------------------------|
|--------------------------------------|
|--------------------------------------|
|--------------------------------------|
|--------------------------------------|

                           SLOW DOWN                 FADE
|-------8----7-------7-----|-------7----8---10--8-10--|-12-----
|------10----8---10--8--8--|-10----8---10---12-10-12--|-13-----
|--9--------------9-----7--|-10-----------------------|--------
|-10-----------------------|--------------------------|--------
|--------------------------|--------------------------|--------
|--------------------------|--------------------------|--------


Guitar 2:Pata
Tempo:80
|---------------------|---------------------|--------------------------|
|---------------------|---------------------|--------------------------|
|---------------------|---------------------|-2-----4-----5--4-2-4--2--|
|---------------------|---------------------|----2-----2---------------|
|---------------------|---------------------|--------------------------|
|---------------------|---------------------|--------------------------|

|-------------------------|-----------------------------|
|-------------------------|-----------------------------|
|-------------------------|-----------------------------|
|-2----9----5-------------|-2----2--2--2--2----2--2--2--|
|-2----9----5-------------|-2----2--2--2--2----2--2--2--|
|-0----7----3----2--3--2--|-0----0--0--0--0----0--0--0--| 2x

|------------------------|------------------------|----|
|------------------------|------------------------|----|
|------------------------|------------------------|----|
|-2----9----5------------|-2----9----5------------|-2--|
|-2----9----5------------|-2----9----5------------|-2--|
|-0----7----3----2--3--2-|-0----7----3----2--3--2-|-0--|
|------------|------------|---------------------|
|------------|------------|---------------------|
|------------|------------|---------------9-9-9-|
|------------|------------|---------------9-9-9-|
|------------|------------|---------------7-7-7-|
|------------|------------|---------------------|

|---------------------|---------------------|
|---------------------|---------------------|
|-9---------------9-9-|-5---5-5-5-7---7-7-7-|
|-9---------------9-9-|-5---5-5-5-7---7-7-7-|
|-7---------------7-7-|-3---3-3-3-5---5-5-5-|
|---------------------|---------------------| 2x

|---------------------------------|
|---------------------------------|
|---------------------------------|
|-9--9999-9--9999-9--9999-9--9999-|
|-9--9999-9--9999-9--9999-9--9999-|
|-7--7777-7--7777-7--7777-7--7777-|

|-----------------------------------------------------|
|-----------------------------------------------------|
|-----------------------------------------------------|
|-10--10101010-10--10101010-10--10101010-10--10101010-|
|-10--10101010-10--10101010-10--10101010-10--10101010-|
|--8---8-8-8-8--8---8-8-8-8--8---8-8-8-8--8---8-8-8-8-|

|---------------------------------|
|---------------------------------|
|---------------------------------|
|-9--9999-9--9999-9--9999-9--9999-|
|-9--9999-9--9999-9--9999-9--9999-|
|-7--7777-7--7777-7--7777-7--7777-|

|-------------------------------------|
|-------------------------------------|
|-------------------------------------|
|-10-10-10-10-10-10-12-12-12-12-12-12-|
|-10-10-10-10-10-10-12-12-12-12-12-12-|
|--8--8--8--8--8--8-10-10-10-10-10-10-|

|----|-------------------|----|-------------------|
|----|-------------------|----|-------------------|
|----|-------------------|----|-------------------|
|-9--|-10-------12-------|-9--|-10-------12-------|
|-9--|-10-------12-------|-9--|-10-------12-------|
|-7--|--8-------10-------|-7--|--8-------10-------|

|-----------------------------|---------------------------|
|-----------------------------|---------------------------|
|-----------------------------|---------------------------|
|-2--2222-2-----2--2222-2-0-1-|-2--2222-2-----------------|
|-2--2222-2-----2--2222-2-----|-2--2222-2---0-2-0---0-----|
|-0--0000-0-3-2-0--0000-0-----|-0--0000-0-3-------3---3-2-| 2x

|----|----|-----------------------------|-------------------|
|----|----|-----------------------------|-------------------|
|-5--|-7--|-----------------------------|----------9\-------|
|-5--|-7--|-2--2222-2-----2--2222-2-0-1-|-2--------9\-------|
|-3--|-5--|-2--2222-2-----2--2222-2-----|-2--------7\-------|
|----|----|-0--0000-0-3-2-0--0000-0-----|-0-----------------|

|-------------------------------|---------------------------------|
|-------------------------------|---------------------------------|
|-------------------------------|---------------------------------|
|-2--2222-2--2222-2--2222-2-2-4-|-5--5555-5--5555-5--5555-5--5544-|
|-2--2222-2--2222-2--2222-2-2-4-|-5--5555-5--5555-5--5555-5--5544-|
|-0--0000-0--0000-0--0000-0-0-2-|-3--3333-3--3333-3--3333-3--3322-|

|---------------------------------|-----------------|
|---------------------------------|-----------------|
|-7--7777-7--7777-7--7777-7--7777-|-5---5---7---7---|
|-7--7777-7--7777-7--7777-7--7777-|-5---5---7---7---|
|-5--5555-5--5555-5--5555-5--5555-|-3---3---5---5---|
|---------------------------------|-----------------|

|-------------------------------|-------------------------------|
|-------------------------------|-------------------------------|
|-------------------------------|-------------------------------|
|-2--2222-2--2222-2--2222-2-2-4-|-5--5555-5--5555-5--5555-5-5-4-|
|-2--2222-2--2222-2--2222-2-2-4-|-5--5555-5--5555-5--5555-5-5-4-|
|-0--0000-0--0000-0--0000-0-0-2-|-3--3333-3--3333-3--3333-3-3-2-|

|---------------------------------|
|---------------------------------|
|-7--7777-7--7777-7--7777-7--7777-|
|-7--7777-7--7777-7--7777-7--7777-|
|-5--5555-5--5555-5--5555-5--5555-|
|---------------------------------|

|-----------------------------|---------------------------|
|-----------------------------|---------------------------|
|-----------------------------|---------------------------|
|-2--2222-2-----2--2222-2-0-1-|-2--2222-2-----------------|
|-2--2222-2-----2--2222-2-----|-2--2222-2---0-2-0---0-----|
|-0--0000-0-3-2-0--0000-0-----|-0--0000-0-3-------3---3-2-| 2x

|-------------------------------|---------------------------------|
|-------------------------------|---------------------------------|
|-------------------------------|---------------------------------|
|-2--2222-2--2222-2--2222-2-2-4-|-5--5555-5--5555-5--5555-5--5544-|
|-2--2222-2--2222-2--2222-2-2-4-|-5--5555-5--5555-5--5555-5--5544-|
|-0--0000-0--0000-0--0000-0-0-2-|-3--3333-3--3333-3--3333-3--3322-|

|---------------------------------|-----------------|
|---------------------------------|-----------------|
|-7--7777-7--7777-7--7777-7--7777-|-5---5---7---7---|
|-7--7777-7--7777-7--7777-7--7777-|-5---5---7---7---|
|-5--5555-5--5555-5--5555-5--5555-|-3---3---5---5---|
|---------------------------------|-----------------|

|-------------------------------|-------------------------------|
|-------------------------------|-------------------------------|
|-------------------------------|-------------------------------|
|-2--2222-2--2222-2--2222-2-2-4-|-5--5555-5--5555-5--5555-5-5-4-|
|-2--2222-2--2222-2--2222-2-2-4-|-5--5555-5--5555-5--5555-5-5-4-|
|-0--0000-0--0000-0--0000-0-0-2-|-3--3333-3--3333-3--3333-3-3-2-|

|---------------------------------|---------------------------------|
|---------------------------------|---------------------------------|
|-7--7777-7--7777-7--7777-7--7777-|-9--9999-7--9999-7--9999-7--7777-|
|-7--7777-7--7777-7--7777-7--7777-|-7--9999-7--9999-7--9999-7--7777-|
|-5--5555-5--5555-5--5555-5--5555-|-7--7777-7--2777-7--7777-5--5555-|
|---------------------------------|---------------------------------|

|---------------------------------| |
|---------------------------------| |
|---------------------------------| |
|-5--5555-5--5555-5--5555-5--5544-| |
|-5--5555-5--5555-5--5555-5--5544-| |
|-3--3333-3--3333-3--3333-3--3322-| |
                                    | 4x
|---------------------------------| |
|---------------------------------| |
|-7--7777-7--7777-7--7777-7--7777-| |
|-7--7777-7--7777-7--7777-7--7777-| |
|-5--5555-5--5555-5--5555-5--5555-| |
|---------------------------------| |

|-------------------|-------------------| 
|-------------------|-------------------| 
|-5--------7--------|-9--------5--------|
|-5--------7--------|-9--------5--------| 
|-3--------5--------|-7--------3--------|
|-------------------|-------------------| 2x

|-------------------|
|-------------------|
|-5--------7--------|
|-5--------7--------|
|-3--------5--------|
|-------------------|

|--------------------------------|
|--------------------------------|
|--------------------------------|
|-2--2222-2--2222-2--2222-2-2222-|
|-2--2222-2--2222-2--2222-2-2222-|
|-0--0000-0--0000-0--0000-0-0000-| 4x

|------------------|--------------------------------|
|------------------|--------------------------------|
|------------------|--------------------------------|
|-7----------------|-7--7777-7--7777-7--7777-7-7777-|
|-7----------------|-7--7777-7--7777-7--7777-7-7777-|
|-5----------------|-5--5555-5--5555-5--5555-5-5555-| 2x

|---------------------------------|      
|---------------------------------|       
|---------------------------------|       
|-7--7777-5--5555-3--3333-5--5555-|       
|-7--7777-5--5555-3--3333-5--3333-|       
|-5--5555-3--3333-1--1111-3--3333-| 2x    

|---------------------------------|--------------------------|
|---------------------------------|--------------------------|
|-----------------5--5555-7--7777-|--------------------------|
|-7--7777-5--5555-5--5555-5--5555-|-9--9999-9--9999-9--------|
|-7--7777-5--5555-3--3333-5--5555-|-9--9999-9--9999-9--------|
|-5--5555-3--3333-----------------|-7--7777-7--7777-7--------|

|---------------------------------|                 |
|---------------------------------|                 |
|---------------------------------|                 |
|-9--9999-9--9999-9--9999-9--7--9-|                 |
|-9--9999-9--9999-9--9999-9--7--9-|                 |
|-7--7777-7--7777-7--7777-7--5--7-|                 |
                                                    | 3x
|-------------------------------------------------| |
|-------------------------------------------------| |
|-------------------------------------------------| |
|-10--10101010-10--10101010-10--10101010-10-12-10-| |
|-10--10101010-10--10101010-10--10101010-10-12-10-| |
|--8---8-8-8-8--8---8-8-8-8--8---8-8-8-8--8-10--8-| |

|---------------------------------|
|---------------------------------|
|---------------------------------|
|-9--9999-9--9999-9--9999-9--7--9-|
|-9--9999-9--9999-9--9999-9--7--9-|
|-7--7777-7--7777-7--7777-7--5--7-|

|------------------------------------|
|------------------------------------|
|------------------------------------|
|-10--10101010-10--10101010-12-------|
|-10--10101010-10--10101010-12-------|
|--8---8-8-8-8--8---8-8-8-8-10-------|

|--------------------|---------------------|
|--------------------|---------------------|
|-9------------9-9-9-|-5---5-5-5-7---7-7-7-|
|-9------------9-9-9-|-5---5-5-5-7---7-7-7-|
|-7------------9-7-7-|-3---3-3-3-5---5-5-5-|
|--------------------|---------------------| 2x

Tempo:190
|---------------------------|-------------------------| |
|---------------------------|-------------------------| |
|-9--------------9----------|-9--------------12-------| |
|-9--------------9----------|-9--------------12-------| |
|-7--7-7-7-7-7-7-7--7-7-7-7-|-7--7-7-7-7-7-7-10----10-| |
|----0-0-0-0-0-0----0-0-0-0-|----0-0-0-0-0-0----10----| |
                                                        | 2x
|---------------------------|-------------------------| |
|---------------------------|-------------------------| |
|-9--------------9----------|-------------------------| |
|-9--------------9----------|-------------------------| |
|-7--7-7-7-7-7-7-7--7-7-7-7-|----2--------------------| |
|----0-0-0-0-0-0----0-0-0-0-|-0-----5--3--5--3--2--3--| |

|----|----|------------------------------|
|----|----|------------------------------|
|----|----|------------------------------|
|----|----|------------------------------|
|----|----|--------5----------5----------|
|-0--|----|-0--0-0-3--0-0-0-0-3--0--0-0--|

|------------------------|----|----|
|------------------------|----|----|
|------------------------|----|----|
|------------------------|----|----|
|-5---------7------------|----|----|
|-3--0-0-0--5------3--2--|-0--|----|

|------------------------------|------------------------|
|------------------------------|------------------------|
|------------------------------|------------------------|
|------------------------------|------------------------|
|--------5----------5----------|-5---------7------------|
|-0--0-0-3--0-0-0-0-3--0--0-0--|-3--0-0-0--5------3--2--| 5x

|------------------|--------------------|
|------------------|--------------------|
|------------------|--------------------|
|------------------|-5------7------5----|
|------------------|-5------7------5----|
|-0----------------|-3------5------3----|

|--------------------------------|
|--------------------------------|
|*-------------------------------|
|*-------------------------------|
|--2--2-2-2-2-2-2-2--2-2-2-2-2-2-|
|--0--0-0-0-0-0-0-0--0-0-0-0-0-0-| 2x

|-------------------------------|
|-------------------------------|
|-------------------------------|
|-------------------------------|
|-5--5-5-5-5-5-5-5--5-5-5-5-5-5-|
|-3--3-3-3-3-3-3-3--3-3-3-3-3-3-| 2x

|-------------------------------|
|-------------------------------|
|-------------------------------|
|-7--7-7-7-7-7-7-7--7-7-7-7-7-7-|
|-5--5-5-5-5-5-5-5--5-5-5-5-5-5-|
|-------------------------------| 2x

|-------------------|-------------------|
|-------------------|-------------------|
|-5--------5--------|-7--------7--------|
|-5--------5--------|-7--------7--------|
|-3--------3--------|-5--------5--------|
|-------------------|-------------------|

|-------------------------------|
|-------------------------------|
|-------------------------------|
|-------------------------------|
|-2--2-2-2-2-2-2-2--2-2-2-2-2-2-|
|-0--0-0-0-0-0-0-0--0-0-0-0-0-0-| 2x

|-------------------------------|
|-------------------------------|
|-------------------------------|
|-------------------------------|
|-5--5-5-5-5-5-5-5--5-5-5-5-5-5-|
|-3--3-3-3-3-3-3-3--3-3-3-3-3-3-| 2x

|-------------------------------|
|-------------------------------|
|-------------------------------|
|-7--7-7-7-7-7-7-7--7-7-7-7-7-7-|
|-5--5-5-5-5-5-5-5--5-5-5-5-5-5-|
|-------------------------------| 2x

|-------------------------------|---------------------------|
|-------------------------------|---------------------------|
|-------------------------------|----------------12----7----|
|-9--9-9-9-9-9-9-9--9-9-9-9-9-9-|-9--9-9-9-9-9-9-12----7----|
|-7--7-7-7-7-7-7-7--7-7-7-7-7-7-|-7--7-7-7-7-7-7-10----5----|
|-------------------------------|---------------------------|

|-------------------------------|-------------------------------|
|-------------------------------|-------------------------------|
|-------------------------------|-------------------------------|
|-------------------------------|-7--7-7-7-7-7-7-7--7-7-7-7-7-5-|
|-5--5-5-5-5-5-5-5--5-5-5-5-5-5-|-5--5-5-5-5-5-5-5--5-5-5-5-5-5-|
|-3--3-3-3-3-3-3-3--3-3-3-3-3-3-|-------------------------------|

|-------------------------------|-------------------------------|
|-------------------------------|-------------------------------|
|-------------------------------|-------------------------------|
|-9--9-9-9-9-9-9-9--9-9-9-9-9-9-|-9--9-9-9-9-9-9-9--9-9-9-9-9-9-|
|-6--6-6-6-6-6-6-6--6-6-6-6-6-6-|-7--7-7-7-7-7-7-7--7-7-7-7-7-7-|
|-------------------------------|-------------------------------|

|-------------------------------|-------------------------------|
|-------------------------------|-------------------------------|
|-------------------------------|-------------------------------|
|-7--7-7-7-7-7-7-7--7-7-7-7-7-5-|-7--7-7-7-7-7-7-7--7-7-7-7-7-7-|
|-5--5-5-5-5-5-5-5--5-5-5-5-5-5-|-5--5-5-5-5-5-5-5--5-5-5-5-5-5-|
|-------------------------------|-------------------------------|

|--------------------|--------------------|
|--------------------|--------------------|
|-7--------7----7----|-4--------4----4----|
|-7--------7----7----|-4--------4----4----|
|-5--------5----5----|-2--------2----2----|
|--------------------|--------------------|

|-------------------------------|-------------------------------|
|-------------------------------|-------------------------------|
|-------------------------------|-------------------------------|
|-------------------------------|-7--7-7-7-7-7-7-7--7-7-7-7-7-7-|
|-5--5-5-5-5-5-5-5--5-5-5-5-5-5-|-5--5-5-5-5-5-5-5--5-5-5-5-5-5-|
|-3--3-3-3-3-3-3-3--3-3-3-3-3-3-|-------------------------------|

|-------------------------------|-------------------------------|
|-------------------------------|-------------------------------|
|-------------------------------|-------------------------------|
|-9--9-9-9-9-9-9-9--9-9-9-9-9-9-|-9--9-9-9-9-9-9-9--9-9-9-9-9-9-|
|-6--6-6-6-6-6-6-6--6-6-6-6-6-6-|-7--7-7-7-7-7-7-7--7-7-7-7-7-7-|
|-------------------------------|-------------------------------|

|---------------------------------------------|
|---------------------------------------------|
|---------------------------------------------|
|-10--10-10-10-10-10-10-10--10-10-10-10-10-10-|
|--8---8--8--8--8--8--8--8---8--8--8--8--8--8-|
|---------------------------------------------| 2x

|---------------------------------------------|
|---------------------------------------------|
|---------------------------------------------|
|-12--12-12-12-12-12-12-12--12-12-12-12-12-12-|
|-10-10--10-10-10-10-10-10--10-10-10-10-10-10-|
|---------------------------------------------| 2x

|-------------------------------|
|-------------------------------|
|-------------------------------|
|-------------------------------|
|-7--7-7-7-7-7-7-7--7-7-7-7-7-7-|
|-5--5-5-5-5-5-5-5--5-5-5-5-5-5-| 2x

|-------------------------------|
|-------------------------------|
|-------------------------------|
|-------------------------------|
|-3--3-3-3-3-3-3-3--3-3-3-3-3-3-|
|-1--1-1-1-1-1-1-1--1-1-1-1-1-1-| 2x

|-------------------------------|
|-------------------------------|
|-------------------------------|
|-------------------------------|
|-5--5-5-5-5-5-5-5--5-5-5-5-5-5-|
|-3--3-3-3-3-3-3-3--3-3-3-3-3-3-| 3x

|-------------------------------|
|-------------------------------|
|-------------------------------|
|-9--9-9-9-9-9-9-9--9-9-9-9-9-9-|
|-7--7-7-7-7-7-7-7--7-7-7-7-7-7-|
|-------------------------------|

|-------------------------------|
|-------------------------------|
|-------------------------------|
|-------------------------------|
|-7--7-7-7-7-7-7-7--7-7-7-7-7-7-|
|-5--5-5-5-5-5-5-5--5-5-5-5-5-5-| 2x

|-------------------------------|
|-------------------------------|
|-------------------------------|
|-------------------------------|
|-3--3-3-3-3-3-3-3--3-3-3-3-3-3-|
|-1--1-1-1-1-1-1-1--1-1-1-1-1-1-| 2x


|-------------------------------|-------------------------------|
|-------------------------------|-------------------------------|
|-------------------------------|-------------------------------|
|-------------------------------|-------------------------------|
|-5--5-5-5-5-5-5-5--5-5-5-5-5-5-|-2--2-2-2-2-2-2-2--2-2-2-2-2-2-|
|-3--3-3-3-3-3-3-3--3-3-3-3-3-3-|-0--0-0-0-0-0-0-0--0-0-0-0-0-0-|

|-------------------------------|-------------------------------| |
|-------------------------------|-------------------------------| |
|-------------------------------|-------------------------------| |
|-------------------------------|-------------------------------| |
|-3--3-3-3-3-3-3-3--3-3-3-3-3-3-|-5--5-5-5-5-5-5-5--5-5-5-5-5-5-| |
|-1--1-1-1-1-1-1-1--1-1-1-1-1-1-|-3--3-3-3-3-3-3-3--3-3-3-3-3-3-| |
                                                                  | 2x
|-------------------------------|-------------------------------| |
|-------------------------------|-------------------------------| |
|-------------------------------|-------------------------------| |
|-------------------------------|-------------------------------| |
|-7--7-7-7-7-7-7-7--7-7-7-7-7-7-|-7--7-7-7-7-7-7-7--7-7-7-7-7-7-| |
|-5--5-5-5-5-5-5-5--5-5-5-5-5-5-|-5--5-5-5-5-5-5-5--5-5-5-5-5-5-| |

|-------------------------------|-------------------------------|
|-------------------------------|-------------------------------|
|-------------------------------|-------------------------------|
|-------------------------------|-------------------------------|
|-3--3-3-3-3-3-3-3--3-3-3-3-3-3-|-5--5-5-5-5-5-5-5--5-5-5-5-5-5-|
|-1--1-1-1-1-1-1-1--1-1-1-1-1-1-|-3--3-3-3-3-3-3-3--3-3-3-3-3-3-|

Goal 1
|----|----|----|----|----|----|----|----|
|----|----|----|----|----|----|----|----|
|----|----|----|----|----|----|----|----|
|-7--|----|-10-|----|-3--|----|-5--|----|
|-7--|----|-10-|----|-3--|----|-5--|-7--|
|-5--|----|--8-|----|-1--|----|-3--|-4--|  2x

|-------------------|-------------------|----|----|
|-------------------|-------------------|----|----|
|-------------------|-------------------|----|----|
|-7--7--------------|-7--7--------------|-3--|----|
|-7--7--------------|-7--7--------------|-3--|----|
|-5--5--------------|-5--5--------------|-1--|----|

|-------------------|-------------------|----|------------------|
|-------------------|-------------------|----|------------------|
|-------------------|-------------------|----|------------------|
|-7--7--------------|-7--7--------------|-8--|--------8---10----|
|-7--7--------------|-7--7--------------|-8--|--------8---10----|
|-5--5--------------|-5--5--------------|-6--|--------6----8----|

|--------------------------|-------------------------| |
|--------------------------|-------------------------| |
|--------------------------|-------------------------| |
|-12-12-12-12-12-12-12-12--|-5--5--5--5--5--5--5--5--| |
|-12-12-12-12-12-12-12-12--|-5--5--5--5--5--5--5--5--| |
|-10-10-10-10-10-10-10-10--|-3--3--3--3--3--3--3--3--| |
                                                       | 2x
|-------------------------|-------------------------|  |
|-------------------------|-------------------------|  |
|-------------------------|-------------------------|  |
|-7--7--7--7--7--7--7--7--|-7--7--7--7--7--7--7--7--|  |
|-7--7--7--7--7--7--7--7--|-7--7--7--7--7--7--7--7--|  |
|-5--5--5--5--5--5--5--5--|-5--5--5--5--5--5--5--5--|  |

|-------------------------|
|-------------------------|
|-------------------------|
|-8--8--8--8--8--8--8--8--|
|-8--8--8--8--8--8--8--8--|
|-6--6--6--6--6--6--6--6--|  2x

|-------------------------|
|-------------------------|
|-------------------------|
|-7--7--7--7--7--7--7--7--|
|-7--7--7--7--7--7--7--7--|
|-5--5--5--5--5--5--5--5--|  2x

|-------------------------|
|-------------------------|
|-------------------------|
|-8--8--8--8--8--8--8--8--|
|-8--8--8--8--8--8--8--8--|
|-6--6--6--6--6--6--6--6--|  2x

|--------------------------|
|--------------------------|
|--------------------------|
|-10-10-10-10-10-10-10-10--|
|-10-10-10-10-10-10-10-10--|
|--8--8--8--8--8--8--8--8--|  2x

|------------------------------|------------------------|
|------------------------------|------------------------|
|------------------------------|------------------------|
|------------------------------|------------------------|
|--------5----------5----------|-5---------7------------|
|-0--0-0-3--0-0-0-0-3--0--0-0--|-3--0-0-0--5------3--2--| 8x

|----|---------------------|
|----|---------------------|
|----|--------------------*|
|-2--|-2------7-----------*|
|-2--|-2------7------------|
|-0--|-0------5------3--2--|

Goal 2
|-------------------------------|
|-------------------------------|
|-------------------------------|
|-------------------------------|
|-7--7-7-7-7-7-7-7--7-7-7-7-7-7-|
|-5--5-5-5-5-5-5-5--5-5-5-5-5-5-| 2x

|-------------------------------|-------------------------------|
|-------------------------------|-------------------------------|
|-------------------------------|-------------------------------|
|-------------------------------|-------------------------------|
|-3--3-3-3-3-3-3-3--3-3-3-3-3-3-|-5--5-5-5-5-5-5-5--5-5-5-5-5-5-|
|-1--1-1-1-1-1-1-1--1-1-1-1-1-1-|-3--3-3-3-3-3-3-3--3-3-3-3-3-3-|

|-------------------------------|
|-------------------------------|
|-------------------------------|
|-------------------------------|
|-7--7-7-7-7-7-7-7--7-7-7-7-7-7-|
|-5--5-5-5-5-5-5-5--5-5-5-5-5-5-| 2x

|-------------------------------|-------------------------------|
|-------------------------------|-------------------------------|
|-------------------------------|-------------------------------|
|-------------------------------|-------------------------------|
|-3--3-3-3-3-3-3-3--3-3-3-3-3-3-|-5--5-5-5-5-5-5-5--5-5-5-5-5-5-|
|-1--1-1-1-1-1-1-1--1-1-1-1-1-1-|-3--3-3-3-3-3-3-3--3-3-3-3-3-3-|

|-------------------------------|-------------------------------|
|-------------------------------|-------------------------------|
|-------------------------------|-------------------------------|
|-------------------------------|-------------------------------|
|-3--3-3-3-3-3-3-3--3-3-3-3-3-3-|-2--2-2-2-2-2-2-2--2-2-2-2-2-2-|
|-1--1-1-1-1-1-1-1--1-1-1-1-1-1-|-0--0-0-0-0-0-0-0--0-0-0-0-0-0-|

|-------------------------------|
|-------------------------------|
|-------------------------------|
|-7--7-7-7-7-7-7-7--7-7-7-7-7-7-|
|-5--5-5-5-5-5-5-5--5-5-5-5-5-5-|
|-------------------------------|

|-------------------------------|               |
|-------------------------------|               |
|-------------------------------|               |
|-9--9-9-9-9-9-9-9--9-9-9-9-9-9-|               |
|-7--7-7-7-7-7-7-7--7-7-7-7-7-7-|               |
|-------------------------------|               |
                                                | 2x
|---------------------------------------------| |
|---------------------------------------------| |
|---------------------------------------------| |
|-10--10-10-10-10-10-10-10--10-10-10-10-10-10-| |
|--8---8--8--8--8--8--8--8---8--8--8--8--8--8-| |
|---------------------------------------------| |

|---------------------------------------------|
|---------------------------------------------|
|---------------------------------------------|
|-12--12-12-12-12-12-12-12--12-12-12-12-12-12-|
|-10--10-10-10-10-10-10-10--10-10-10-10-10-10-|
|---------------------------------------------|

Tempo:80
|-----------------------------------------| |
|-----------------------------------------| |
|-----------------------------------------| |
|-2--2-2-2-2-2--------2--2-2-2-2----------| |
|-0--0-0-0-0-0--3--2--0--0-0-0-0-0--------| |
|-----------------------------------3--4--| |
                                            | 2x
|---------------------------------------|   |
|---------------------------------------|   |
|---------------------------------------|   |
|-2--2-2-2-2-2-----0--2--0-----0--------|   |
|-0--0-0-0-0-0--3-----------3-----3--2--|   |
|---------------------------------------|   |

|-------------------|-------------------|
|-------------------|-------------------|
|-------------------|-------------------|
|-7-------10--------|-3--------5--------|
|-7-------10--------|-3--------5--------|
|-5--------8--------|-1--------3--------| 2x

|-------------------|-------------------|
|-------------------|-------------------|
|-------------------|-------------------|
|-7--------5--------|-3--------5--------|
|-7--------5--------|-3--------5--------|
|-5--------3--------|-1--------3--------| 2x

|-----------------------|-----------------------|
|-----------------------|-----------------------|
|-----------------------|-----------------------|
|-7------------7--7--7--|-5------------5--5--5--|
|-7------------7--7--7--|-5------------5--5--5--|
|-5------------5--5--5--|-3------------3--3--3--|

|-----------------------|-----------------------|
|-----------------------|-----------------------|
|-----------------------|-----------------------|
|-3------------3--3--3--|-2------------2--2--2--|
|-3------------3--3--3--|-2------------2--2--2--|
|-1------------1--1--1--|-0------------0--0--0--|

                    SLOW DOWN          FADE
|-------------------|-------------------|--------|
|-------------------|-------------------|--------|
|-------------------|-------------------|--------|
|-7--------5--------|-3----5------------|-7------|
|-7--------5--------|-3----5------------|-7------|
|-5--------3--------|-1----3------------|-5------|


That was a long one!





Comments


Popular X Japan tabs & chords
Blue Blood Bass Tabs
Blue Blood Intro Bass Tabs
Endless Rain Bass Tabs
Jade Bass Tabs
Joker Bass Tabs
Tears 1 Chords
Love Replica Tabs
Silent Jealousy Tabs
Tears Tabs
Unfinished Tabs


Song lyrics



↑ Back to top | Tablatures and chords are parodies/interpretations of the original songs. You may use it for private study, scholarship, research or language learning purposes only
© 2014 AZChords.com Contact us | Privacy policy | DMCA | Add/correct tabs | Request tabs | Top 50 tabs