>
 >
Miscast

Miscast Bass Tabs

X Japan - Miscast chords, tabs, tablatures, lyrics

Guitar lessons | Add/correct | Request | Top 50 tabs Artists:  A B C D E F G H I J K L M N O P Q R S T U V W X Y Z 0-9

Miscast Bass Tabs – X Japan

CD, Sheet music, Poster

Do you like Miscast? Share with your friends now
Bass TabsTabs

MISCAST (Bassline)
As recorded by X Japan


	



Gtr I (Eb Ab Db Gb Bb Eb) - 'Vocals'
Gtr II (Eb Ab Db Gb) - 'Picked Bass'
Gtr III (A# D# G# C# F# A# D#) - 'Percussion'

  Q=193
 4/4
  Gtr II
  W          H     Q  E E   E E Q  E E E E   H    E E E E
|----------|--------------|----------------|---------------|
|----------|--------------|----------------|---------------|
|----------|--------------|----------------|---------------|
|----------|------------0-|-0--------0-0-0-|--------0---0--|
|
| Gtr III
| W          Q  Q  Q  E E   E E Q  E E E E   H    E E E E
|----------|--------------|----------------|---------------|
|----------|--------------|----------------|---------------|
|----------|--------------|----------------|---------------|
|----------|--------------|----------------|---------------|
|----------|-2--2--2--2---|----------------|---------------|
|----------|------------4-|-4--------4-4-4-|--------4---4--|
|----------|------------6-|-6--------6-6-6-|--------6---6--|


  H    E E E E   H    Q  E E   E E Q  E E E E   H    E E E E
|--------------|-------------|----------------|--------------|
|--------------|-------------|----------------|--------------|
|--------------|-------------|----------------|--------------|
|--------0-0-0-|-----------0-|-0--------0-0-0-|--------0---0-|
|
| H    E E E E   H    Q  E E   E E Q  E E E E   H    E E E E
|--------------|-------------|----------------|--------------|
|--------------|-------------|----------------|--------------|
|--------------|-------------|----------------|--------------|
|--------------|-------------|----------------|--------------|
|--------------|-------------|----------------|--------------|
|--------4-4-4-|-----------4-|-4--------4-4-4-|--------4---4-|
|--------6-6-6-|-----------6-|-6--------6-6-6-|--------6---6-|


  H    E E E E   H    Q  E E   E E Q  E E E E   H    E E E E
|--------------|-------------|----------------|--------------|
|--------------|-------------|----------------|--------------|
|--------------|-------------|----------------|--------------|
|--------0-0-0-|-----------0-|-0--------0-0-0-|--------0---0-|
|
| H    E E E E   H    Q  E E   E E Q  E E E E   H    E E E E
|--------------|-------------|----------------|--------------|
|--------------|-------------|----------------|--------------|
|--------------|-------------|----------------|--------------|
|--------------|-------------|----------------|--------------|
|--------------|-------------|----------------|--------------|
|--------4-4-4-|-----------4-|-4--------4-4-4-|--------4---4-|
|--------6-6-6-|-----------6-|-6--------6-6-6-|--------6---6-|


  H    E E E E   H    Q  E E   E E Q  E E E E   H    E E E E
|--------------|-------------|----------------|--------------|
|--------------|-------------|----------------|--------------|
|--------------|-------------|----------------|--------------|
|--------0-0-0-|-----------0-|-0--------0-0-0-|--------0---0-|
|
| H    E E E E   H    Q  E E   E E Q  E E E E   H    E E E E
|--------------|-------------|----------------|--------------|
|--------------|-------------|----------------|--------------|
|--------------|-------------|----------------|--------------|
|--------------|-------------|----------------|--------------|
|--------------|-------------|----------------|--------------|
|--------4-4-4-|-----------4-|-4--------4-4-4-|--------4---4-|
|--------6-6-6-|-----------6-|-6--------6-6-6-|--------6---6-|


  H    E E E E   H    Q       E E   +E  E E E E E +E  E   +E  E E E E E +E  E
|--------------|------------------|---------------------|---------------------|
|--------------|------------------|---------------------|---------------------|
|--------------|------------------|-----------0-1-(1)---|-------1---0---------|
|--------0-0-0-|----------------0-|-(0)-0-3-0---------0-|-(0)-0---0---3-(3)-0-|
|
| H    E E E E   H    S S S S E E    E  E E E E E  E  E    E  E E E E E  E  E
|--------------|------------------|---------------------|---------------------|
|--------------|------------------|---------------------|---------------------|
|--------------|------------------|---------------------|---------------------|
|--------------|----------------0-|-------------------0-|-------------------0-|
|--------------|------3-3---------|-------2-0------2----|-------2-0------2----|
|--------4-4-4-|----------1-1-1---|--3--3-1---3-3--1----|--3--3-1---3-3--1----|
|--------6-6-6-|----------------2-|-----2-----2-2-----2-|-----2-----2-2-----2-|


  +E  E E E E E +E  E   +E  E E E E E +E  E
|---------------------|---------------------|
|---------------------|---------------------|
|-----------0-1-(1)---|-------1---0---------|
|-(0)-0-3-0---------0-|-(0)-0---0---3-(3)-0-|
|
|  E  E E E E E  E  E    E  E E E E E  E  E
|---------------------|---------------------|
|---------------------|---------------------|
|---------------------|---------------------|
|-------------------0-|-------------------0-|
|-------2-0------2----|-------2-0------2----|
|--3--3-1---3-3--1----|--3--3-1---3-3--1----|
|-----2-----2-2-----2-|-----2-----2-2-----2-|


  +E  E E E E E +E  E   +E  E E E E E +E  E
|---------------------|---------------------|
|---------------------|---------------------|
|-----------0-1-(1)---|-------1---0---------|
|-(0)-0-3-0---------0-|-(0)-0---0---3-(3)-0-|
|
|  E  E E E E E  E  E    E  E E E E E  E  E
|---------------------|---------------------|
|---------------------|---------------------|
|---------------------|---------------------|
|-------------------0-|-------------------0-|
|-------2-0------2----|-------2-0------2----|
|--3--3-1---3-3--1----|--3--3-1---3-3--1----|
|-----2-----2-2-----2-|-----2-----2-2-----2-|


  Gtr I
   W                     W
|---------------------|-----------------------|
|---------------------|-----------------------|
|---------------------|-----------------------|
|---------------------|-----------------------|
|---------------------|-----------------------|
|---------------------|-----------------------|
|
| Gtr II
| +E  E E E E E +E  E   +E  E E E E E   +E  E
|---------------------|-----------------------|
|---------------------|-----------------------|
|-----------0-1-(1)---|-------1---0-----------|
|-(0)-0-3-0---------0-|-(0)-0---0---3---(3)-0-|
|
| Gtr III
|  E  E E E E E  E  E    E  E E E E S S  E  E
|---------------------|-----------------------|
|---------------------|-----------------------|
|---------------------|-----------------------|
|-------------------0-|---------------------0-|
|-------2-0------2----|-------2-2--------2----|
|--3--3-1---3-3--1----|--3--3-1---3-3----1----|
|-----2-----2-2-----2-|-----2---2-6-2-1-----2-|


   E  E E E E E E E   E E E E E E E E
|-----7-7-7-7-7-7-7-|-5-5-5-5-5-3-5-5--|
|-------------------|------------------|
|-------------------|------------------|
|-------------------|------------------|
|-------------------|------------------|
|-------------------|------------------|
|
| +H.           Q     E E E E E E E E
|-------------------|------------------|
|-------------------|-2-0---0----------|
|---------------2---|-----2---2---0----|
|-(0)---------------|-----------3---0--|
|
|  W                  H       E E E E
|-------------------|------------------|
|-------------------|------------------|
|-------------------|------------------|
|-------------------|---------------0--|
|-------------------|------------------|
|-------------------|---------1---1----|
|-------------------|-----------2---2--|


  +E  E +E  E H            W
|-(5)-7-(7)-------------|---------------------|
|-----------------------|---------------------|
|-----------------------|---------------------|
|-----------------------|---------------------|
|-----------------------|---------------------|
|-----------------------|---------------------|
|
| +E  E  E  E E E +E  E   +E  E E E E E +E  E
|-----------------------|---------------------|
|-----------------------|---------------------|
|-------------0-1-(1)---|-------1---0---------|
|-(0)-0--3--0---------0-|-(0)-0---0---3-(3)-0-|
|
|  E  E  E  E E E  E  E    E  E E E E E  E  E
|-----------------------|---------------------|
|-----------------------|---------------------|
|-----------------------|---------------------|
|---------------------0-|-------------------0-|
|--------2--0------2----|-------2-0------2----|
|--3--3--1----3-3--1----|--3--3-1---3-3--1----|
|-----2-------2-2-----2-|-----2-----2-2-----2-|


   E  E E E  E  E  E E    E  E  E  E    E   E E E
|-----7-7-7-12---------|---------------------------|
|--------------12-10-8-|-10-10-10-10---10--10-8----|
|----------------------|------------------------9--|
|----------------------|---------------------------|
|----------------------|---------------------------|
|----------------------|---------------------------|
|
| +H.              Q      Q     E  E    Q.      E
|----------------------|-12----12-12---12----------|
|------------------2---|-12----12-12---12----------|
|----------------------|---------------------------|
|-(0)------------------|------------------------0--|
|
|  W                      Q     E  S S  E   E E E
|----------------------|---------------------------|
|----------------------|---------------------------|
|----------------------|---------------------------|
|----------------------|------------------------0--|
|----------------------|---------------------------|
|----------------------|----------------1-----1----|
|----------------------|-----------2-1------2---2--|


  +H        H            W
|---------------------|-------------------|
|---------------------|-------------------|
|-(9)-----------------|-------------------|
|---------------------|-------------------|
|---------------------|-------------------|
|---------------------|-------------------|
|
| +E  E E E E E +E  E   +E  E E E E E E E
|---------------------|-------------------|
|---------------------|-------------------|
|-----------0-1-(1)---|-------1---0-------|
|-(0)-0-3-0---------0-|-(0)-0---0---3-4-5-|
|
|  E  E E E E E  E  E    E  E E E E E E E
|---------------------|-------------------|
|---------------------|-------------------|
|---------------------|-------------------|
|-------------------0-|-----------------0-|
|-------2-0------2----|-------2-0-----2---|
|--3--3-1---3-3--1----|--3--3-1---3-3-1---|
|-----2-----2-2-----2-|-----2-----2-2---2-|


   E   E  E E  E  E  E  E   E  E E  E  +Q.     E
|-------------------------|-8--------------------|
|-----10-10-8-10-10-10-10-|---10-8-10-(10)-------|
|-------------------------|----------------------|
|-------------------------|----------------------|
|-------------------------|----------------------|
|-------------------------|----------------------|
|
| +E   E  E E  E  E  E  E   E  E E  E   E  E E E
|-------------------------|----------------------|
|-------------------------|----------------------|
|-------------------------|-3--3-5--5---6--6-7---|
|-(5)--5--5-5--5--5--5--5-|--------------------7-|
|
|  E   E  E E  E  E  E  E   E  E E  E   E  E E E
|-------------------------|----------------------|
|-------------------------|----------------------|
|-------------------------|----------------------|
|-----------------------0-|--------------------0-|
|---------2-0--------2----|------2--0--------2---|
|--3---3--1----3--3--1----|-3--3-1------3--3-1---|
|------2-------2--2-----2-|----2--------2--2---2-|


   E   E  E  E  E  E  E  E     E   E  E  E  E  E E E
|--------------------------|--10---------------------|
|-----12-12-12-12-12-12-12-|------12-10-12-10-10-8---|
|--------------------------|-----------------------9-|
|--------------------------|-------------------------|
|--------------------------|-------------------------|
|--------------------------|-------------------------|
|
| +E   E  Q     E  E  E  E    +E   E  E  E  E  E E E
|--------------------------|-------------------------|
|---------------9--7-------|-------------------------|
|---------------------9----|-------0-----0-----1-----|
|-(7)--7--7-------------10-|-(10)----10----11----3-0-|
|
|  E   E  E  E  E  E  E  E     E   E  E  E  E  E E E
|--------------------------|-------------------------|
|--------------------------|-------------------------|
|--------------------------|-----------------------3-|
|------------------------0-|-------------0-----------|
|---------2--0--------2----|-------2-----------2-----|
|--3---3--1-----3--3--1----|----------3----------3---|
|------2--------2--2-----2-|-------2--6--2-----2-6-2-|


  +H        H            W
|---------------------|---------------------|
|---------------------|---------------------|
|-(9)-----------------|---------------------|
|---------------------|---------------------|
|---------------------|---------------------|
|---------------------|---------------------|
|
| +E  E E E E E +E  E   +E  E E E E E +E  E
|---------------------|---------------------|
|---------------------|---------------------|
|-----------0-1-(1)---|-------1---0---------|
|-(0)-0-3-0---------0-|-(0)-0---0---3-(3)-0-|
|
|  E  E E E E E  E  E    E  E E E E E  E  E
|---------------------|---------------------|
|---------------------|---------------------|
|---------------------|---------------------|
|-------------------0-|-------------------0-|
|-------2-0------2----|-------2-0------2----|
|--3--3-1---3-3--1----|--3--3-1---3-3--1----|
|-----2-----2-2-----2-|-----2-----2-2-----2-|


   W                     W
|---------------------|---------------------|
|---------------------|---------------------|
|---------------------|---------------------|
|---------------------|---------------------|
|---------------------|---------------------|
|---------------------|---------------------|
|
| +E  E E E E E +E  E   +E  E E E E E   E E
|---------------------|---------------------|
|---------------------|---------------------|
|-----------0-1-(1)---|-------1---0-----5-7-|
|-(0)-0-3-0---------0-|-(0)-0---0---3-------|
|
|  E  E E E E E  E  E    E  E E E E S S E E
|---------------------|---------------------|
|---------------------|---------------------|
|---------------------|---------------------|
|-------------------0-|-------------------0-|
|-------2-0------2----|-------2-2-------2---|
|--3--3-1---3-3--1----|--3--3-1---1-3---1---|
|-----2-----2-2-----2-|-----2-----2-1-2---2-|


   E  E E E  E  E  E E    E   E  E  E  E E  E  E
|-----7-7-7-12---------|--------------------------|
|--------------12-10-8-|-10--10-10-10-10-8-10-10--|
|----------------------|--------------------------|
|----------------------|--------------------------|
|----------------------|--------------------------|
|----------------------|--------------------------|
|
| +E  E E E  E  E  E E   +E   E  E  E  E E  E  E
|----------------------|--------------------------|
|----------------------|--------------------------|
|-(7)-7-7-7--7--7--7-7-|-(7)--5-----5-------0-----|
|----------------------|---------7-----7-3-----0--|
|
|  E  E E E  E  E  E E    E   E  E  E  E E  E  E
|----------------------|--------------------------|
|----------------------|--------------------------|
|----------------------|--------------------------|
|----------------------|-----------------------0--|
|-------2-0--------2-2-|--0------2--0-------2-----|
|--3--3-1----3--3--1---|------3--1-----3-3--1-----|
|-----2------2--2----2-|------2--------2-2-----2--|


   +E   E  +E  E H            W
|--------------------------|---------------------|
|-(10)-12-(12)-------------|---------------------|
|--------------------------|---------------------|
|--------------------------|---------------------|
|--------------------------|---------------------|
|--------------------------|---------------------|
|
|  +E   E   E  E E E +E  E   +E  E E E E E +E  E
|--------------------------|---------------------|
|--------------------------|-------------------2-|
|----------------0-1-(1)---|-------1---0---------|
|--(0)--0---3--0---------0-|-(0)-0---0---3-(3)---|
|
|   E   E   E  E E E  E  E    E  E E E E E  E  E
|--------------------------|---------------------|
|--------------------------|---------------------|
|--------------------------|---------------------|
|------------------------0-|-------------------0-|
|-----------2--0------2----|-------2-0------2----|
|---3---3---1----3-3--1----|--3--3-1---3-3--1----|
|-------2--------2-2-----2-|-----2-----2-2-----2-|


   E   E  E  E  E  E  E E    E  E  +E   E  Q    E  E
|--------------12---------|--------------------------|
|-----12-12-12----12-10-8-|-10-10-(10)-10-10---12----|
|-------------------------|--------------------------|
|-------------------------|-----------------------14-|
|-------------------------|--------------------------|
|-------------------------|--------------------------|
|
| +E   E  E  E  E  E  E E    E  E   E   E  E E  E  E
|-----------------------4-|--3--4---9----------------|
|-(2)--2--2--2--2--2--2---|-------------9--8-7--5----|
|-------------------------|--------------------------|
|-------------------------|------------------------0-|
|
|  E   E  E  E  E  E  E E    E  E   E   E  E E  E  E
|-------------------------|--------------------------|
|-------------------------|--------------------------|
|-------------------------|--------------------------|
|-------------------------|------------------------0-|
|---------2--0--------2-2-|--0------2---0-------2----|
|--3---3--1-----3--3--1---|-----3---1------3-3--1----|
|------2--------2--2----2-|-----2----------2-2-----2-|


   +H        H            W
|----------------------|-------------------|
|----------------------|-------------------|
|----------------------|-------------------|
|-(14)-----------------|-------------------|
|----------------------|-------------------|
|----------------------|-------------------|
|
|  +E  E E E E E +E  E   +E  E E E E E E E
|----------------------|-------------------|
|----------------------|-------------------|
|------------0-1-(1)---|-------1---0-------|
|--(0)-0-3-0---------0-|-(0)-0---0---3-4-5-|
|
|   E  E E E E E  E  E    E  E E E E E E E
|----------------------|-------------------|
|----------------------|-------------------|
|----------------------|-------------------|
|--------------------0-|-----------------0-|
|--------2-0------2----|-------2-0-----2---|
|---3--3-1---3-3--1----|--3--3-1---3-3-1---|
|------2-----2-2-----2-|-----2-----2-2---2-|


   E   E  E  E  E  E  E  E   E  E E  E  +H
|--------------------------|-8--------------------|
|-----------------10-10-10-|---10-8-10-(10)-------|
|-----14-14-14-12----------|----------------------|
|--------------------------|----------------------|
|--------------------------|----------------------|
|--------------------------|----------------------|
|
| +E   E  E  E  E  E  E  E   E  E E  E   E  E E E
|--------------------------|----------------------|
|--------------------------|----------------------|
|--------------------------|-3--3-5--5---6--6-7---|
|-(5)--5--5--5--5--5--5--5-|--------------------7-|
|
|  E   E  E  E  E  E  E  E   E  E E  E   E  E E E
|--------------------------|----------------------|
|--------------------------|----------------------|
|--------------------------|----------------------|
|------------------------0-|--------------------0-|
|---------2--0--------2----|------2--0--------2---|
|--3---3--1-----3--3--1----|-3--3-1------3--3-1---|
|------2--------2--2-----2-|----2--------2--2---2-|


   E   E  E  E  E  E  E  E    E   E  E  E  E  E E E
|--------------10----------|------------------------|
|-----12-12-12----12-10-12-|-10--10-10-10-10-10-8-8-|
|--------------------------|------------------------|
|--------------------------|------------------------|
|--------------------------|------------------------|
|--------------------------|------------------------|
|
| +E   E  Q     E  E  E  E   +E   E  E  E  E  E E E
|--------------------------|------------------------|
|--------------------------|------------------------|
|------------------------5-|-(5)-----5-----6--------|
|-(7)--7--7-----7--5--7----|------5-----5-----6-3-0-|
|
|  E   E  E  E  E  E  E  E    E   E  E  E  E  E E E
|--------------------------|------------------------|
|--------------------------|------------------------|
|--------------------------|----------------------3-|
|------------------------0-|------------0-----------|
|---------2--0--------2----|------2-----------2-----|
|--3---3--1-----3--3--1----|---------3----------3---|
|------2--------2--2-----2-|------2--6--2-----2-6-2-|


  +E  E +E  E H            W
|-----------------------|---------------------|
|-(8)-------------------|---------------------|
|-----9-(9)-------------|---------------------|
|-----------------------|---------------------|
|-----------------------|---------------------|
|-----------------------|---------------------|
|
| +E  E  E  E E E +E  E   +E  E E E E E +E  E
|-----------------------|---------------------|
|-----------------------|---------------------|
|-------------0-1-(1)---|-------1---0---------|
|-(0)-0--3--0---------0-|-(0)-0---0---3-(3)-0-|
|
|  E  E  E  E E E  E  E    E  E E E E E  E  E
|-----------------------|---------------------|
|-----------------------|---------------------|
|-----------------------|---------------------|
|---------------------0-|-------------------0-|
|--------2--0------2----|-------2-0------2----|
|--3--3--1----3-3--1----|--3--3-1---3-3--1----|
|-----2-------2-2-----2-|-----2-----2-2-----2-|


   W                     W
|---------------------|-------------------|
|---------------------|-------------------|
|---------------------|-------------------|
|---------------------|-------------------|
|---------------------|-------------------|
|---------------------|-------------------|
|
| +E  E E E E E +E  E   +E  E E E E E E E
|---------------------|-------------------|
|---------------------|---------------0---|
|-----------0-1-(1)---|-----------2-2---3-|
|-(0)-0-3-0---------0-|-(0)-0-3-3---------|
|
|  E  E E E E E  E  E    E  E E E E E E E
|---------------------|-------------------|
|---------------------|-------------------|
|---------------------|-------------------|
|-------------------0-|-----------------0-|
|-------2-0------2----|-----------3-3-3---|
|--3--3-1---3-3--1----|-------1-1---------|
|-----2-----2-2-----2-|-----2-----------2-|


   Q    E E E E +E  E   +E  E H       Q
|-------------3-(3)---|-------------------|
|-----------5---------|-------3-----------|
|-------9-7---------4-|-(4)-5-------------|
|---------------------|-------------------|
|---------------------|-------------------|
|---------------------|-------------------|
|
| +E  E Q   E E  E  E   +E  E E E E E E E
|-----------5---------|-------------------|
|-------5-------------|-------------5-----|
|-(3)-3---------------|-------2-3-5---5-3-|
|-------------0--2--3-|-(3)-3-------------|
|
|  E  E E E E E  E  E    E  E E E E E E E
|---------------------|-------------------|
|---------------------|-------------------|
|---------------------|-------------------|
|-------------------0-|-----------------0-|
|-------2-0------2----|-------2-0-----2---|
|--3--3-1---3-3--1----|--3--3-1---3-3-1---|
|-----2-----2-2-----2-|-----2-----2-2---2-|


   Q    E E E E +E  E   +E  E H       Q
|-------------3-(3)---|-------------------|
|-------5-3-5---------|-------3-----------|
|-------------------4-|-(4)-5-------------|
|---------------------|-------------------|
|---------------------|-------------------|
|---------------------|-------------------|
|
| +E  E Q   E E  E  E   +E  E E E E E E E
|-----------5---------|-------------------|
|-------5-------------|-------------5-----|
|-(3)-3---------------|-------2-3-5---5---|
|-------------0--2--3-|-(3)-3-----------5-|
|
|  E  E E E E E  E  E    E  E E E E E E E
|---------------------|-------------------|
|---------------------|-------------------|
|---------------------|-------------------|
|-------------------0-|-----------------0-|
|-------2-0------2----|-------2-0-----2---|
|--3--3-1---3-3--1----|--3--3-1---3-3-1---|
|-----2-----2-2-----2-|-----2-----2-2---2-|


   Q    E E E E +E  E   +Q    Q   Q   E E
|---------------------|---------------3-5-|
|-------1-0-1-3-(3)-5-|-(5)---3---5-------|
|---------------------|-------------------|
|---------------------|-------------------|
|---------------------|-------------------|
|---------------------|-------------------|
|
| +E  E E E E E  E  E    E  E E E E E E E
|---------------------|-------------------|
|---------------------|-------------------|
|---------------------|-----------6-6-7---|
|-(5)-5-5-5-5-5--5--5-|--5--5-5-5-------7-|
|
|  E  E E E E E  E  E    E  E E E E E E E
|---------------------|-------------------|
|---------------------|-------------------|
|---------------------|-------------------|
|--2--2-2-2-2-2--2--2-|--2--2-2-2-2-2-2-0-|
|---------------------|-------------------|
|-------1--------1----|-------1-------1---|
|-----2-----2-2-------|--2--2-----2-2---2-|


  +E  E H       Q     W
|-(5)-3-2-----------|-----------------|
|-------------------|-----------------|
|-------------------|-----------------|
|-------------------|-----------------|
|-------------------|-----------------|
|-------------------|-----------------|
|
| +E  E E E E E E E   E E E E E E E E
|-------------------|-----------------|
|-----------9-9-7-7-|-5-5-4-4-2-0-----|
|-------------------|-------------2-3-|
|-(7)-7-7-7---------|-----------------|
|
|  E  E E E E E E E   E E E E E E E E
|-------------------|-----------------|
|-------------------|-----------------|
|-----------------3-|-----------------|
|--2--4-2-0-2-4-2---|-2-2-2-2-2-2-2-0-|
|-------------------|-----------------|
|-------1-------1---|-----1-------1---|
|-----2---2---2---2-|---2---2-2-2---2-|


   Q    E E E E +E  E   +E  E H       Q
|-------------3-(3)---|-------------------|
|-------5-3-5---------|-------3-----------|
|-------------------4-|-(4)-5-------------|
|---------------------|-------------------|
|---------------------|-------------------|
|---------------------|-------------------|
|
| +E  E Q   E E  E  E   +E  E E E E E E E
|-----------5---------|-------------------|
|-------5-------------|-------------5-----|
|-(3)-3---------------|-------2-3-5---5-3-|
|-------------0--2--3-|-(3)-3-------------|
|
|  E  E E E E E  E  E    E  E E E E E E E
|---------------------|-------------------|
|---------------------|-------------------|
|---------------------|-------------------|
|-------------------0-|-----------------0-|
|-------2-0------2----|-------2-0-----2---|
|--3--3-1---3-3--1----|--3--3-1---3-3-1---|
|-----2-----2-2-----2-|-----2-----2-2---2-|


   Q    E E E E +E  E   +E  E H       Q
|-------------3-(3)---|-------------------|
|-------5-3-5---------|-------3-----------|
|-------------------4-|-(4)-5-------------|
|---------------------|-------------------|
|---------------------|-------------------|
|---------------------|-------------------|
|
| +E  E Q   E E  E  E   +E  E E E E E E E
|-----------5---------|-------------------|
|-------5-------------|-------------5-----|
|-(3)-3---------------|-------2-3-5---5-3-|
|-------------0--2--3-|-(3)-3-------------|
|
|  E  E E E E E  E  E    E  E E E E E E E
|---------------------|-------------------|
|---------------------|-------------------|
|---------------------|-------------------|
|-------------------0-|-----------------0-|
|-------2-0------2----|-------2-0-----2---|
|--3--3-1---3-3--1----|--3--3-1---3-3-1---|
|-----2-----2-2-----2-|-----2-----2-2---2-|


   E  E E E E E E E   E E E E   E E +E  E
|-------------------|----------------------|
|-----5-5-5-5-5-5-5-|-7-7-7-7---7-7-(7)-8--|
|-------------------|----------------------|
|-------------------|----------------------|
|-------------------|----------------------|
|-------------------|----------------------|
|
| +E  E Q   E E E E   E E E E   E E +Q
|-----------5-------|----------------------|
|-------------------|----------------------|
|-(3)-3-3-------3-4-|-5-5-5-5---5-6-(6)----|
|-------------5-----|----------------------|
|
|  E  E E E E E E E   E E E S S E E +E  E
|-------------------|----------------------|
|-------------------|----------------------|
|-------------------|----------------------|
|--2--2-2-2-2-2-2-2-|-2-2-2-2---2-0-(0)----|
|-------------------|----------------------|
|-------1-------1---|-----1-----1----------|
|-----2-----2-2-----|-2-2---2-1---2-(2)-2--|


  +E  E +E  E H         H       Q   E E
|---------------------|---------------7-|
|-(8)-----------------|-----------------|
|-----9-(9)-----------|-----------------|
|---------------------|-----------------|
|---------------------|-----------------|
|---------------------|-----------------|
|
|  E  E  E  E E E E E   E E E E E E E E
|---------------------|-----------------|
|---------------------|---------5---7---|
|--7--------7-----7---|---7-------7---7-|
|-----0--0----0-0---0-|-0---0-0---------|
|
|  E  E  E  E E E E E   E E E E E E E E
|---------------------|-----------------|
|---------------------|-----------------|
|---------------------|-----------------|
|--0--------0-----0---|---0-----0-----0-|
|---------------------|-----------------|
|--1--------1-----1---|---1-----1---1---|
|--2--1--2--1-2-1-2-1-|-2-1-2-1-2-1---2-|


  +Q    E E E E E E   +E  E E E E E  E  E
|-(7)---5---3-5---7-|-(7)-7-5---3-5-------|
|-------------------|-------------------7-|
|-------------------|---------------------|
|-------------------|---------------------|
|-------------------|---------------------|
|-------------------|---------------------|
|
| +Q    E E E E E E   +E  E E E E E +E  E
|-------------------|---------------------|
|-------------------|---------------------|
|-(7)---------------|-----------2-3-(3)-5-|
|-------0-0-0-0-0-3-|-(3)-3-3-3-----------|
|
|  E  E E E E E E E    E  E E E E E  E  E
|-------------------|---------------------|
|-------------------|---------------------|
|-------------------|---------------------|
|-----------------0-|-------------------0-|
|-------2-0-----2---|-------2-0------2----|
|--3--3-1---3-3-1---|--3--3-1---3-3--1----|
|-----2-----2-2---2-|-----2-----2-2-----2-|


  +E  E E E  E E  E  E    +E   E  +E  E Q   E  E
|----------------------|-------------------------|
|-(7)-7-8-8-10-8-10-10-|-(10)-12-(12)---------12-|
|----------------------|-------------------------|
|----------------------|-------------------------|
|----------------------|-------------------------|
|----------------------|-------------------------|
|
| +E  E E E  E E  E  E    +E   E   E  E E E E  E
|----------------------|-------------------------|
|----------------------|-------------------------|
|-(5)-5-5-5--5-5--5----|----------------5---5--7-|
|--------------------0-|--(0)--5---6--7---7------|
|
|  E  E E E  E E  E  E     E   E   E  E E E E  E
|----------------------|-------------------------|
|----------------------|-------------------------|
|----------------------|-------------------------|
|--------------------0-|-----------------------0-|
|-------2-0-------2----|-----------2--0-----2----|
|--3--3-1----3-3--1----|---3---3---1----3-3-1----|
|-----2------2-2-----2-|-------2--------2-2----2-|


   +Q     E E E  E E  E    +E   E  E E E  E E  E
|-----------------------|------------------------|
|-(12)---10---8-10---12-|-(12)-12-10---8-10------|
|-----------------------|---------------------11-|
|-----------------------|------------------------|
|-----------------------|------------------------|
|-----------------------|------------------------|
|
|  +Q     E E E  E E  E    +E   E  E E E  E E  E
|-----------------------|------------------------|
|-----------------------|------------------------|
|--(7)------------------|----------------------5-|
|---------0-0-0--0-0--3-|--(3)--3--3-3-3--3-3----|
|
|   E  E  E E E  E E  E     E   E  E E E  E E  E
|-----------------------|------------------------|
|-----------------------|------------------------|
|-----------------------|------------------------|
|---------------------0-|----------------------0-|
|---------2-0------2----|----------2-0------2----|
|---3--3--1---3--3-1----|---3---3--1---3--3-1----|
|------2------2--2----2-|-------2------2--2----2-|


   +E   E  E  E  E E E E   +Q    Q   H
|------------------------|-------------------|
|---------------10-8-7-5-|-(5)---------------|
|-(11)-11-12-12----------|-------------------|
|------------------------|-------------------|
|------------------------|-------------------|
|------------------------|-------------------|
|
|  +E   E  E  E  E E E E   +E  E Q   E E Q
|------------------------|-------------------|
|------------------------|-------------------|
|--(5)--5--5--5----------|-------------------|
|----------------3-2-1-0-|-(0)-0-0---0-2-3---|
|
|   E   E  E  E  E E E E    E  E E E E E E E
|------------------------|-------------------|
|------------------------|-------------------|
|------------------------|-----------------3-|
|----------------------0-|---------------0---|
|----------2--0------2---|-------2-0---------|
|---3---3--1-----3-3-1---|--3--3-1---3-3-1---|
|-------2--------2-2---2-|-----2-----2-2-2-2-|


  H       Q   E E   +E  E E E E E E E
|---------------7-|-(7)-7-5-5-3-5-----|
|-----------------|-----------------7-|
|-----------------|-------------------|
|-----------------|-------------------|
|-----------------|-------------------|
|-----------------|-------------------|
|
| E E E E E E E E   +E  E E E E E E E
|-----------------|-------------------|
|-----------------|-------------------|
|-----------------|-----------2-3-4-5-|
|-0-0-0-0-0-0-0-3-|-(3)-3-3-3---------|
|
| E E E E E E E E    E  E E E E E E E
|-----------------|-------------------|
|-----------------|-------------------|
|-----------------|-------------------|
|---------------0-|-----------------0-|
|-1-1-1-1-1-1-----|-------2-0-----2---|
|-4-4-4-4-4-4-1---|--3--3-1---3-3-1---|
|---------------2-|-----2-----2-2---2-|


  +E  E E E  E E  E  E    +E   E  +E  E Q   E  E
|----------------------|-------------------------|
|-(7)-7-8-8-10-8-10-10-|-(10)-12-(12)---------12-|
|----------------------|-------------------------|
|----------------------|-------------------------|
|----------------------|-------------------------|
|----------------------|-------------------------|
|
| +E  E E E  E E  E  E    +E   E   E  E E E E  E
|----------------------|-------------------------|
|----------------------|-------------------------|
|-(5)-5-5-5--5-5--5----|----------------5---5--7-|
|--------------------0-|--(0)--5---6--7---7------|
|
|  E  E E E  E E  E  E     E   E   E  E E E E  E
|----------------------|-------------------------|
|----------------------|-------------------------|
|----------------------|-------------------------|
|--------------------0-|-----------------------0-|
|-------2-0-------2----|-----------2--0-----2----|
|--3--3-1----3-3--1----|---3---3---1----3-3-1----|
|-----2------2-2-----2-|-------2--------2-2----2-|


   +E  E  E E E  E E  E    +E  E  E E E  E E  E
|-----------------------|-----------------------|
|-(12)---10---8-10---12-|-(12)---10---8-10------|
|-----------------------|--------------------11-|
|-----------------------|-----------------------|
|-----------------------|-----------------------|
|-----------------------|-----------------------|
|
|  +Q     E E E  E E  E    +E  E  E E E  E E  E
|-----------------------|-----------------------|
|-----------------------|-----------------------|
|--(7)------------------|---------------------5-|
|---------0-0-0--0-0--3-|--(3)-3--3-3-3--3-3----|
|
|   E  E  E E E  E E  E     E  E  E E E  E E  E
|-----------------------|-----------------------|
|-----------------------|-----------------------|
|-----------------------|-----------------------|
|---------------------0-|---------------------0-|
|---------2-0------2----|---------2-0------2----|
|---3--3--1---3--3-1----|---3--3--1---3--3-1----|
|------2------2--2----2-|------2------2--2----2-|


   +E   E    Q      E E   E E   +E  E Q   H
|-----------------------------|---------------------|
|------------------10-8---7-5-|-(5)-----------------|
|-(11)-11---12----------------|---------------------|
|-----------------------------|---------------------|
|-----------------------------|---------------------|
|-----------------------------|---------------------|
|
|  +E   E    E E    E E   E E   +E  E E E E E +E  E
|-----------------------------|---------------------|
|-----------------------------|---------------------|
|--(5)--5----5-5----5-5---5---|-----------0-1-(1)---|
|---------------------------0-|-(0)-0-3-0---------0-|
|
|   E   S S  E S S  E S S E E    E  E E E E E  E  E
|-----------------------------|---------------------|
|-----------------------------|---------------------|
|-----------------------------|---------------------|
|------------3------3-----3-0-|-------------------0-|
|-----------------------------|-------2-0------2----|
|------------1------1-----1---|--3--3-1---3-3--1----|
|-------2-1----2-1----2-1---2-|-----2-----2-2-----2-|


   H        E E +E  E   +E  E +H         Q
|-------------7-(7)-7-|-(7)--------------------|
|---------------------|-----5-(5)--------------|
|---------------------|------------------------|
|---------------------|------------------------|
|---------------------|------------------------|
|---------------------|------------------------|
|
| +E  E E E E E +E  E   +E  E  E  E E E +E  E
|---------------------|------------------------|
|---------------------|------------------------|
|-------1---0---------|-------------0-1-(1)----|
|-(0)-0---0---3-(3)-0-|-(0)-0--3--0---------0--|
|
|  E  E E E E E  E  E    E  E  E  E E E  E  E
|---------------------|------------------------|
|---------------------|------------------------|
|---------------------|------------------------|
|-------------------0-|---------------------0--|
|-------2-0------2----|--------2--0------2-----|
|--3--3-1---3-3--1----|--3--3--1----3-3--1-----|
|-----2-----2-2-----2-|-----2-------2-2-----2--|


   W                     W
|---------------------|---------------------|
|---------------------|---------------------|
|---------------------|---------------------|
|---------------------|---------------------|
|---------------------|---------------------|
|---------------------|---------------------|
|
| +E  E E E E E +E  E   +E  E E E E E +E  E
|---------------------|---------------------|
|---------------------|---------------------|
|-------1---0---------|-----------0-1-(1)---|
|-(0)-0---0---3-(3)-0-|-(0)-0-3-0---------0-|
|
|  E  E E E E E  E  E    E  E E E E E  E  E
|---------------------|---------------------|
|---------------------|---------------------|
|---------------------|---------------------|
|-------------------0-|-------------------0-|
|-------2-0------2----|-------2-0------2----|
|--3--3-1---3-3--1----|--3--3-1---3-3--1----|
|-----2-----2-2-----2-|-----2-----2-2-----2-|


   H        E E  E  E   +E  E +H         Q
|-------------7--7--7-|-(7)-------------------|
|---------------------|-----5-(5)-------------|
|---------------------|-----------------------|
|---------------------|-----------------------|
|---------------------|-----------------------|
|---------------------|-----------------------|
|
| +E  E E E E E +E  E   +E  E  E  E E E +E  E
|---------------------|-----------------------|
|---------------------|-----------------------|
|-------1---0---------|-------------0-1-(1)---|
|-(0)-0---0---3-(3)-0-|-(0)-0--3--0---------0-|
|
|  E  E E E E E  E  E    E  E  E  E E E  E  E
|---------------------|-----------------------|
|---------------------|-----------------------|
|---------------------|-----------------------|
|-------------------0-|---------------------0-|
|-------2-0------2----|--------2--0------2----|
|--3--3-1---3-3--1----|--3--3--1----3-3--1----|
|-----2-----2-2-----2-|-----2-------2-2-----2-|


  Gtr II
  +E  E E E   E E E E   +W                       +H              +E  E E E
|---------------------|------------------------|---------------------------|
|---------------------|------------------------|---------------------------|
|-------1-----0-------|------------------------|---------------------------|
|-(0)-0---0-----3-4-5-|-(5)--------------------|-(5)-------------(5)-3-4-5-|
|
| Gtr III
|  E  E E S S E E E E    E  E E. S E E S S S S    E  S S S S S S  E  E E E
|---------------------|------------------------|---------------------------|
|---------------------|------------------------|---------------------------|
|-----------------3---|------------------------|-----------------------3---|
|---------------0---0-|------------------------|---------------------0---0-|
|-------2-------------|--2----5------4-4-4-4-4-|--3--3-3-3-3-3-3--1--------|
|--3--3-1-----1-------|-------1--1-1-----------|---------------------------|
|-----2---2-1---2-2-2-|-----2----------2-------|--2------2-----------2-2-2-|


  +W                            E E E E E E E E   +E  E E E Q       E   E
|-----------------------------|-----------------|--------------------------|
|-----------------------------|---------------1-|-(1)-1-0---------------1--|
|-----------------------------|---3---5---3-----|--------------------------|
|-(5)-------------------------|-----------------|--------------------------|
|
|  E  E E S S S S S S S S S S   E E E E E E E E   +E  E Q   S S S S S S E
|-----------------------------|-----------------|--------------------------|
|-----------------------------|-----------------|--------------------------|
|-----------------------------|-----------------|-------3------------------|
|-----------------------------|---------------0-|-(0)-------------------0--|
|--2----5---------1---1-------|---2-0-2-0-2-0---|---------------3-3-1-1----|
|-------1-----1-----------4---|-1---------------|-------1---1-1------------|
|-----2---2-1---2---2---2---2-|---2---2---2---2-|-(2)-2-2---2-------2---2--|


  +E  E E E Q     E   E   +E  E E E   E E E E
|-----------------------|---------------------|
|-(1)-1-0-------------1-|-(1)-1-0-------------|
|-----------------------|---------------0---0-|
|-----------------------|---------------------|
|
| +E  E Q   E S S S S E   +E  E E S S E E E E
|-----------------------|---------------------|
|-----------------------|---------------------|
|-----------------------|-------3-------------|
|-(0)---0-------------0-|-(0)-----------------|
|-----------1-----------|-------------2-2-0-2-|
|-------1-----1-1-1-1---|-------1-----1-------|
|-(2)-2-2---2-----2---2-|-(2)-2-2-2-1---2---2-|


  H     Q   E E   +E  E E E E E E E
|---------------|--------------------|
|---------------|--------------------|
|---------------|-----------------0--|
|-------------0-|-(0)-2-2-2-2-2-2----|
|
| H    +Q.    E   +E  E E E E E E E
|---------------|--------------------|
|---------------|--------------------|
|---------------|--------------------|
|-------------0-|-(0)-------------0--|
|-0----(0)------|-------2-0-----2----|
|---------------|-----3-1---3-3-1----|
|-------------2-|-(2)-2-----2-2---2--|


  +E  E E E E E E E   +E  E E E E E E E
|-------------------|-------------------|
|-------------------|-------------------|
|-(0)-------------2-|-(2)-2-2-2-2-2-2---|
|-----2-2-2-2-2-2---|-----------------0-|
|
|  E  E E E E E E E    E  E E E E E E E
|-------------------|-------------------|
|-------------------|-------------------|
|-------------------|-------------------|
|-----------------0-|-----------------0-|
|-------2-0-----2---|-------2-0-----2---|
|--3--3-1---3-3-1---|--3--3-1---3-3-1---|
|-----2-----2-2---2-|-----2-----2-2---2-|


  +E  E E E E E E E   +E  E E E E E E E
|-------------------|-------------------|
|-------------------|-------------------|
|-------------------|-----------------0-|
|-(0)-0-0-0-0-0-0-0-|-(0)-2-2-2-2-2-2---|
|
|  E  E E E E E E E    E  E E E E E E E
|-------------------|-------------------|
|-------------------|-------------------|
|-------------------|-------------------|
|-----------------0-|-----------------0-|
|-------2-0-----2---|-------2-0-----2---|
|--3--3-1---3-3-1---|--3--3-1---3-3-1---|
|-----2-----2-2---2-|-----2-----2-2---2-|


  +E  E E E E E E E   +E  E E E E E E E   +E  E E E E E Q    E E E E E E E E
|-------------------|-------------------|------------------|-----------------|
|-------------------|-------------------|---------------2--|-----------------|
|-(0)-------------2-|-(2)-2-2-2-2-2-2---|------------------|---------------0-|
|-----2-2-2-2-2-2---|-----------------0-|-(0)-0-0-0-0-0----|-2-2-2-2-2-2-2---|
|
|  E  E E E E E E E    E  E E E E E E E    E  E E E E E Q    E E E E E E E E
|-------------------|-------------------|------------------|-----------------|
|-------------------|-------------------|------------------|-----------------|
|-------------------|-------------------|------------------|-----------------|
|-----------------0-|-----------------0-|---------------0--|---------------0-|
|-------2-0-----2---|-------2-0-----2---|-------2---1------|-1-1-1-1-1-1-----|
|--3--3-1---3-3-1---|--3--3-1---3-3-1---|--3--3-1-------1--|-4-4-4-4---4-1---|
|-----2-----2-2---2-|-----2-----2-2---2-|-----2---2---2-2--|---------0-----2-|


  +E  E E E E E E E   +E  E E E E E E E
|-------------------|-------------------|
|-------------------|-------------------|
|-(0)-0-0-0-0-0-0-3-|-(3)-0-0-0-0-0-0-5-|
|-------------------|-------------------|
|
|  E  E E E E E E E    E  E E E E E E E
|-------------------|-------------------|
|-------------------|-------------------|
|-------------------|-------------------|
|-----------------0-|-----------------0-|
|-------2-0-----2---|-------2-0-----2---|
|--3--3-1---3-3-1---|--3--3-1---3-3-1---|
|-----2-----2-2---2-|-----2-----2-2---2-|


  +E  E E E E E E E   +E  E E E E E E E
|-------------------|-------------------|
|-------------------|-------------------|
|-(5)-5-5-5-5-5-5---|-----------------0-|
|-----------------3-|-(3)-3-3-3-3-3-3---|
|
|  E  E E E E E E E    E  E E E E E E E
|-------------------|-------------------|
|-------------------|-------------------|
|-------------------|-------------------|
|-----------------0-|-----------------0-|
|-------2-0-----2---|-------2-0-----2---|
|--3--3-1---3-3-1---|--3--3-1---3-3-1---|
|-----2-----2-2---2-|-----2-----2-2---2-|


  +E  E E E E E E E   +E  E E E E E E E
|-------------------|-------------------|
|-------------------|-------------------|
|-(0)-0-0-0-0-0-0-3-|-(3)-0-0-0-0-0-0-5-|
|-------------------|-------------------|
|
|  E  E E E E E E E    E  E E E E E E E
|-------------------|-------------------|
|-------------------|-------------------|
|-------------------|-------------------|
|-----------------0-|-----------------0-|
|-------2-0-----2---|-------2-0-----2---|
|--3--3-1---3-3-1---|--3--3-1---3-3-1---|
|-----2-----2-2---2-|-----2-----2-2---2-|


  +E  E E E E E E E   +E  E E E E E E E
|-------------------|----------------------|
|-------------------|----------------------|
|-(5)-5-5-5-5-5-5---|----------------------|
|-----------------3-|-(3)-3-3-3-3-3-3-3----|
|
|  E  E E E E E E E    E  E E E E E E S S
|-------------------|----------------------|
|-------------------|----------------------|
|-------------------|----------------------|
|-----------------0-|----------------------|
|-------2-0-----2---|----------------------|
|--3--3-1---3-3-1---|-----4-4-4-4-4-4------|
|-----2-----2-2---2-|-----6-6-6-6-6-6-2-1--|


  E E E E E E    E  E   E E E E  E E E E   E E E E E E E E   E E E E E E E E
|-----------9---10-12-|------------------|-----------------|------------------|
|---------------------|------------------|-----------------|-----0-1-3-1-0----|
|---------------------|-----7-8-10-8-7---|-----2-3-5-3-2---|-1-1-----------1--|
|-3-3-3-3-3-----------|-8-8------------8-|-3-3-----------3-|------------------|
|
| E E E E E S S  Q      Q   Q    E E E E   E E E E E E E E   Q   Q   E E E E
|---------------------|------------------|-----------------|------------------|
|---------------------|------------------|-----------------|------------------|
|---------------------|------------------|-----------------|------------------|
|----------------0----|-0---2----2-2-2-2-|-2-2-2-2-2-2-2-2-|-0---2---2-2-2-2--|
|---------1-----------|------------------|-----------------|------------------|
|-1---1----------1----|-----1--------1---|-----1-------1---|-----1-------1----|
|---2---2---2-1--2----|-2--------2-2---2-|---2-----2-2-----|-2-------2-2---2--|


  E E E E E E E E   E E E E E E E E   E E E E E E E E   E E E E E E E E
|-----2-3-5-3-2---|-----------------|-----------------|-----------------|
|-3-3-----------3-|-----2-3-5-3-2---|-----------------|-----0-1-3-1-0---|
|-----------------|-3-3-----------3-|-----2-3-5-3-2---|-1-1-----------1-|
|-----------------|-----------------|-3-3-----------3-|-----------------|
|
| E E E E E E E E   Q   Q   E E E E   E E E E E E E E   E E E E E E E E
|-----------------|-----------------|-----------------|-----------------|
|-----------------|-----------------|-----------------|-----------------|
|-----------------|-----------------|-----------------|-----------------|
|-2-2-2-2-2-2-2-2-|-0---2---2-2-2-2-|-2-2-2-2-2-2-2-2-|-2-2-2-2-2-2-2-2-|
|-----------------|-----------------|-----------------|-----------------|
|-----1-------1---|-----1-------1---|-----1-------1---|-----1-------1---|
|---2-----2-2-----|-2-------2-2---2-|---2-----2-2---2-|---2-----2-2-----|


  E E E E E E   E E   Q  S S S S Q  S S S S   Q  S S S S S S S S S S S S
|-----2-3-5-3---2---|-----------------------|----------------------------|
|-3-3-------------3-|-----------------------|----------------------------|
|-------------------|-3--3-3---3-3--3-3---3-|----------------------------|
|-------------------|-----------------------|-3--3-3---3-3-3---3-3-3---3-|
|
| E E E E E S S Q     Q  S S S S Q  S S S S   Q  S S S S S S S S S S S S
|-------------------|-----------------------|----------------------------|
|-------------------|-----------------------|----------------------------|
|-------------------|-----------------------|----------------------------|
|-2-2-2-2-2-----0---|-0---------------------|----------------------------|
|-------------------|-----------------------|----------------------------|
|-----1---------1---|----1-1---1-1--1-1---1-|-1--1-1---1-1-1---1-1-1---1-|
|---2---2---2-1-2---|-2--2-------2--2-------|-2--2-------2-------2-------|


  Q  S S S S Q  S S S S   Q  S S S S S S S S S S S S
|-----------------------|-----------------------------|
|-----------------------|-----------------------------|
|-1--1-1---1-1--1-1---1-|-----------------------------|
|-----------------------|-1--1-1---1-1-1---1-1-1---1--|
|
| Q  S S S S Q  S S S S   Q  S S S S S S S S S S S S
|-----------------------|-----------------------------|
|-----------------------|-----------------------------|
|-----------------------|-----------------------------|
|-0---------------------|-----------------------------|
|-----------------------|-----------------------------|
|----1-1---1-1--1-1---1-|-1--1-1---1-1-1---1-1-1---1--|
|-2--2-------2--2-------|-2--2-------2-------2--------|


  Q  S S S S Q  S S S S   Q  S S S S S S S S S S S S
|-----------------------|-----------------------------|
|-----------------------|-----------------------------|
|-3--3-3---3-3--3-3---3-|-----------------------------|
|-----------------------|-3--3-3---3-3-3---3-3-3---3--|
|
| Q  S S S S Q  S S S S   Q  S S S S S S S S S S S S
|-----------------------|-----------------------------|
|-----------------------|-----------------------------|
|-----------------------|-----------------------------|
|-0---------------------|-----------------------------|
|-----------------------|-----------------------------|
|----1-1---1-1--1-1---1-|-1--1-1---1-1-1---1-1-1---1--|
|-2--2-------2--2-------|-2--2-------2-------2--------|


  H          H            H          Q.    E   +E  E E E E E E E
|-----------------------|--------------------|---------------------|
|-1---------------------|--------------------|---------------------|
|------------1----------|------------3-------|---------------------|
|-----------------------|-1----------------3-|-(3)-3-3-3-3-3-3-3---|
|
| Q  S S S S Q  S S S S   Q  S S S S Q   E E   +E  E E E E E E S S
|-----------------------|--------------------|---------------------|
|-----------------------|--------------------|---------------------|
|------------3----------|------------------3-|-(3)-----------------|
|-0---------------------|-0----------0-------|---------------------|
|----4-4-4-4----3-3-3-3-|----1-1-1-1---------|-----------3---5-----|
|-----------------------|----------------1---|-------1-------1-----|
|-2--2-------2--2-------|-2--2-------2-----2-|-(2)-2---2---2---2-1-|


  E E   E   E   E   E   E E   +E  E   Q   E E E E   H    E E E E
|---------------------------|---------------------|--------------|
|---------------------------|---------------------|--------------|
|-------------------------0-|-(0)-0---------0-0-0-|--------0---0-|
|-3-3---3---3---3---3---3---|---------------------|--------------|
|
| E S S S S S S S S S S E E   +E  S S E E E E E E   H    E E E E
|---------------------------|---------------------|--------------|
|---------------------------|---------------------|--------------|
|---------------------------|---------------------|--------------|
|-------------------------0-|-(0)-----------------|--------------|
|---3-3-3-3-3-3-1-1-1-1-----|---------5-----------|------------2-|
|-1---------------------1---|---------1-----4-4-4-|--------7-5-1-|
|-------2-------2---------2-|-(2)-2-1-------6-6-6-|--------6-2---|


  H      E E E E   H    Q  E E   E E Q  E E E E   H    E E  E  E
|----------------|-------------|----------------|----------------|
|----------------|-------------|----------------|----------------|
|----------0-0-0-|-----------0-|-0--------0-0-0-|--------0-----0-|
|----------------|-------------|----------------|----------------|
|
| E E Q  E E E E   H    Q  E E   E E Q  E E E E   H    E E +E  E
|----------------|-------------|----------------|----------------|
|----------------|-------------|----------------|----------------|
|----------------|-------------|----------------|----------------|
|----------------|-------------|----------------|----------------|
|-0--------------|-------------|----------------|----------------|
|----------4-4-4-|-----------4-|-4--------4-4-4-|--------4-(4)-4-|
|----------6-6-6-|-----------6-|-6--------6-6-6-|--------6-(6)-6-|


  H    E E E E   H    Q   E E   +E  E E E E E +E  E   +E  E E E E E +E  E
|--------------|--------------|---------------------|---------------------|
|--------------|--------------|---------------------|---------------------|
|--------0-0-0-|--------------|-----------0-1-(1)---|-------1---0---------|
|--------------|------------0-|-(0)-0-3-0---------0-|-(0)-0---0---3-(3)-0-|
|
| H    E E E E   H    E E E E    E  E E E E E  E  E    E  E E E E E  E  E
|--------------|--------------|---------------------|---------------------|
|--------------|--------------|---------------------|---------------------|
|--------------|--------------|---------------------|---------------------|
|--------------|------------0-|-------------------0-|-------------------0-|
|--------------|--------------|-------2-0------2----|-------2-0------2----|
|--------4-4-4-|----------1---|--3--3-1---3-3--1----|--3--3-1---3-3--1----|
|--------6-6-6-|------6-2---2-|-----2-----2-2-----2-|-----2-----2-2-----2-|


  +E  E E E E E +E  E   +E  E E E E E +E  E
|---------------------|---------------------|
|---------------------|---------------------|
|-----------0-1-(1)---|-------1---0---------|
|-(0)-0-3-0---------0-|-(0)-0---0---3-(3)-0-|
|
|  E  E E E E E  E  E    E  E E E E E  E  E
|---------------------|---------------------|
|---------------------|---------------------|
|---------------------|---------------------|
|-------------------0-|-------------------0-|
|-------2-0------2----|-------2-0------2----|
|--3--3-1---3-3--1----|--3--3-1---3-3--1----|
|-----2-----2-2-----2-|-----2-----2-2-----2-|


  +E  E E E E E +E  E   +E  E E E E E +E  E
|---------------------|---------------------|
|---------------------|---------------------|
|-----------0-1-(1)---|-------1---0---------|
|-(0)-0-3-0---------0-|-(0)-0---0---3-(3)-0-|
|
|  E  E E E E E  E  E    E  E E E E E  E  E
|---------------------|---------------------|
|---------------------|---------------------|
|---------------------|---------------------|
|-------------------0-|-------------------0-|
|-------2-0------2----|-------2-0------2----|
|--3--3-1---3-3--1----|--3--3-1---3-3--1----|
|-----2-----2-2-----2-|-----2-----2-2-----2-|


  Gtr I
   W                     W
|---------------------|-----------------------|
|---------------------|-----------------------|
|---------------------|-----------------------|
|---------------------|-----------------------|
|---------------------|-----------------------|
|---------------------|-----------------------|
|
| Gtr II
| +E  E E E E E +E  E   +E  E E E E E   +E  E
|---------------------|-----------------------|
|---------------------|-----------------------|
|-----------0-1-(1)---|-------1---0-----------|
|-(0)-0-3-0---------0-|-(0)-0---0---3---(3)-0-|
|
| Gtr III
|  E  E E E E E  E  E    E  E E E E S S  E  E
|---------------------|-----------------------|
|---------------------|-----------------------|
|---------------------|-----------------------|
|-------------------0-|---------------------0-|
|-------2-0------2----|-------2-2-------------|
|--3--3-1---3-3--1----|--3--3-1---3-3----1----|
|-----2-----2-2-----2-|-----2---2-6-2-1-----2-|


   E  E E E  E  E  E E    E   E  E  E  E E  E  E
|-----7-7-7-12---------|--------------------------|
|--------------12-10-8-|-10--10-10-10-10-8-10-10--|
|----------------------|--------------------------|
|----------------------|--------------------------|
|----------------------|--------------------------|
|----------------------|--------------------------|
|
| +E  E E E  E  E  E E   +E   E  E  E  E E  E  E
|----------------------|--------------------------|
|----------------------|--------------------------|
|----------------------|---------------2----0-----|
|-(0)-0-0-0--0--0--0-0-|-(0)--0--0--0----3-----0--|
|
|  E  E E E  E  E  E E    E   E  E  E  E E  E  E
|----------------------|--------------------------|
|----------------------|--------------------------|
|----------------------|--------------------------|
|----------------------|-----------------------0--|
|-------2-0--------2-2-|--0------2--0-------2-----|
|--3--3-1----3--3--1---|------3--1-----3-3--1-----|
|-----2------2--2----2-|------2--------2-2-----2--|


   +E   E  +E  E H            W
|--------------------------|---------------------|
|-(10)-12-(12)-------------|---------------------|
|--------------------------|---------------------|
|--------------------------|---------------------|
|--------------------------|---------------------|
|--------------------------|---------------------|
|
|  +E   E   E  E E E +E  E   +E  E E E E E +E  E
|--------------------------|---------------------|
|--------------------------|---------------------|
|----------------0-1-(1)---|-------1---0---------|
|--(0)--0---3--0---------0-|-(0)-0---0---3-(3)-0-|
|
|   E   E   E  E E E  E  E    E  E E E E E  E  E
|--------------------------|---------------------|
|--------------------------|---------------------|
|--------------------------|---------------------|
|------------------------0-|-------------------0-|
|-----------2--0------2----|-------2-0------2----|
|---3---3---1----3-3--1----|--3--3-1---3-3--1----|
|-------2--------2-2-----2-|-----2-----2-2-----2-|


   E   E  E  E  E  E  E E    E  E  E  E  +E   E E E
|--------------12---------|-------------------------|
|-----12-12-12----12-10-8-|-10-10-10-10-(10)-10-8---|
|-------------------------|-----------------------9-|
|-------------------------|-------------------------|
|-------------------------|-------------------------|
|-------------------------|-------------------------|
|
| +E   E  E  E  E  E  E E    E  E  E  E   E   E E E
|-------------------------|-------------------------|
|-------------------------|--------0----------------|
|-------------------------|--0--2-----0---2-----0---|
|-(0)--0--0--0--0--0--0-0-|-------------------3---0-|
|
|  E   E  E  E  E  E  E E    E  E  E  E   E   E E E
|-------------------------|-------------------------|
|-------------------------|-------------------------|
|-------------------------|-------------------------|
|-------------------------|-----------------------0-|
|---------2--0--------2-2-|--0-----2--0---------2---|
|--3---3--1-----3--3--1---|-----3--1------3---3-1---|
|------2--------2--2----2-|-----2---------2---2---2-|


  +H        H            W
|---------------------|-------------------|
|---------------------|-------------------|
|-(9)-----------------|-------------------|
|---------------------|-------------------|
|---------------------|-------------------|
|---------------------|-------------------|
|
| +E  E E E E E +E  E   +E  E E E E E E E
|---------------------|-------------------|
|---------------------|-------------------|
|-----------0-1-(1)---|-------1---0-------|
|-(0)-0-3-0---------0-|-(0)-0---0---3-4-5-|
|
|  E  E E E E E  E  E    E  E E E E E E E
|---------------------|-------------------|
|---------------------|-------------------|
|---------------------|-------------------|
|-------------------0-|-----------------0-|
|-------2-0------2----|-------2-0-----2---|
|--3--3-1---3-3--1----|--3--3-1---3-3-1---|
|-----2-----2-2-----2-|-----2-----2-2---2-|


   E   E  E E  E  E  E  E   E  E E  E  +H
|-------------------------|-8--------------------|
|-----10-10---10-10-10-10-|---10-8-10-(10)-------|
|-------------------------|----------------------|
|-------------------------|----------------------|
|-------------------------|----------------------|
|-------------------------|----------------------|
|
| +E   E  E E  E  E  E  E   E  E E  E   E  E E E
|-------------------------|----------------------|
|-------------------------|----------------------|
|-------------------------|-3--3-5--5---6--6-7---|
|-(5)--5--5-5--5--5--5--5-|--------------------7-|
|
|  E   E  E E  E  E  E  E   E  E E  E   E  E E E
|-------------------------|----------------------|
|-------------------------|----------------------|
|-------------------------|----------------------|
|-----------------------0-|--------------------0-|
|---------2-0--------2----|------2--0--------2---|
|--3---3--1----3--3--1----|-3--3-1------3--3-1---|
|------2-------2--2-----2-|----2--------2--2---2-|


   E   E  E  E  E  E  E  E     Q     E  E  E  E E E
|--------------10----------|------------------------|
|-----12-12-12----12-10-12-|--10----10-10-10-10-8-8-|
|--------------------------|------------------------|
|--------------------------|------------------------|
|--------------------------|------------------------|
|--------------------------|------------------------|
|
| +E   E  Q     E  E  E  E    +E  E  E  E  E  E E E
|--------------------------|------------------------|
|---------------9--7-------|------------------------|
|---------------------9----|------0-----0-----1-----|
|-(7)--7--7-------------10-|-(10)---10----11----3-0-|
|
|  E   E  E  E  E  E  E  E     E  E  E  E  E  E E E
|--------------------------|------------------------|
|--------------------------|------------------------|
|--------------------------|----------------------3-|
|------------------------0-|------------0-----------|
|---------2--0--------2----|------2-----------2-----|
|--3---3--1-----3--3--1----|---------3----------3---|
|------2--------2--2-----2-|------2--6--2-----2-6-2-|


  +E  E +E  E H            W
|-----------------------|---------------------|
|-(8)-------------------|---------------------|
|-----9-(9)-------------|---------------------|
|-----------------------|---------------------|
|-----------------------|---------------------|
|-----------------------|---------------------|
|
| +E  E  E  E E E +E  E   +E  E E E E E +E  E
|-----------------------|---------------------|
|-----------------------|---------------------|
|-------------0-1-(1)---|-------1---0---------|
|-(0)-0--3--0---------0-|-(0)-0---0---3-(3)-0-|
|
|  E  E  E  E E E  E  E    E  E E E E E  E  E
|-----------------------|---------------------|
|-----------------------|---------------------|
|-----------------------|---------------------|
|---------------------0-|-------------------0-|
|--------2--0------2----|-------2-0------2----|
|--3--3--1----3-3--1----|--3--3-1---3-3--1----|
|-----2-------2-2-----2-|-----2-----2-2-----2-|


   W                     W
|---------------------|-------------------|
|---------------------|-------------------|
|---------------------|-------------------|
|---------------------|-------------------|
|---------------------|-------------------|
|---------------------|-------------------|
|
| +E  E E E E E +E  E   +E  E E E E E E E
|---------------------|-------------------|
|---------------------|---------------0---|
|-----------0-1-(1)---|-----------2-2---3-|
|-(0)-0-3-0---------0-|-(0)-0-3-3---------|
|
|  E  E E E E E  E  E    E  E E E E E E E
|---------------------|-------------------|
|---------------------|-------------------|
|---------------------|-------------------|
|-------------------0-|-----------------0-|
|-------2-0------2----|-----------3-3-1---|
|--3--3-1---3-





Comments


Popular X Japan tabs & chords
Alive Bass Tabs
Blue Blood Bass Tabs
Tears 1 Chords
Unfinished Chords
Art Of Life 1 Tabs
Dear Loser Tabs
Endless Rain (Solo) Tabs
Ill Kill You 1 Tabs
Last Song Tabs
Orgasm Tabs


Song lyrics



↑ Back to top | Tablatures and chords are parodies/interpretations of the original songs. You may use it for private study, scholarship, research or language learning purposes only
© 2014 AZChords.com Contact us | Privacy policy | DMCA | Add/correct tabs | Request tabs | Top 50 tabs