>
 >
Longing

Longing Guitar Tabs

X Japan - Longing chords, tabs, tablatures, lyrics

Guitar lessons | Add/correct | Request | Top 50 tabs Artists:  A B C D E F G H I J K L M N O P Q R S T U V W X Y Z 0-9

Longing Guitar Tabs – X Japan

CD, Sheet music, Poster

Do you like Longing? Share with your friends now
Bass TabsTabsTabs v2

LONGING
As recorded by X Japan


	



Gtr I (E A D G B E) - 'Vocals'
Gtr II (E A D G B E) - 'Guitar 1'
Gtr III (E A D G B E) - 'Guitar 2'

  Q=78
 4/4
  Gtr I
  W          W          W          W
|----------|----------|----------|------|
|----------|----------|----------|------|
|----------|----------|----------|------|
|----------|----------|----------|------|
|----------|----------|----------|------|
|----------|----------|----------|------|


  W          W          W          W
|----------|----------|----------|------|
|----------|----------|----------|------|
|----------|----------|----------|------|
|----------|----------|----------|------|
|----------|----------|----------|------|
|----------|----------|----------|------|


  W          W          W          W
|----------|----------|----------|------|
|----------|----------|----------|------|
|----------|----------|----------|------|
|----------|----------|----------|------|
|----------|----------|----------|------|
|----------|----------|----------|------|


  E  S  S  S  E  S  +E   E E E    Q.    S  S  +H
|---10-10-10-10-11-(11)-10-8-6-|-13------------------|
|------------------------------|-------13-13-(13)----|
|------------------------------|---------------------|
|------------------------------|---------------------|
|------------------------------|---------------------|
|------------------------------|---------------------|


  E  E  S  E  S  +E   E  E  S  S    +H      H
|--------------------------------|---------------|
|---15-15-15-16-(16)-15-13-15-15-|-(15)----13----|
|--------------------------------|---------------|
|--------------------------------|---------------|
|--------------------------------|---------------|
|--------------------------------|---------------|


  E  S  S  S  E  S  E  E  E  E
|------------------------------|
|---15-15-15-15-15-16-15-13-11-|
|------------------------------|
|------------------------------|
|------------------------------|
|------------------------------|


   Q.    S  S  +Q    +S  S  S  S    Q  E  S  S  E  E  E  S  S
|-13-----------------------------|----------------------------|
|-------13-13-(13)--(13)---13-15-|-16----16-16-18-16-15-16-16-|
|--------------------------------|----------------------------|
|--------------------------------|----------------------------|
|--------------------------------|----------------------------|
|--------------------------------|----------------------------|


   +H     H      E  S  S  S  E  S  +E   E  E  E
|--------------|--------------------------------|
|-(16)---------|---16-16-16-16-18-(18)-16-15-16-|
|--------------|--------------------------------|
|--------------|--------------------------------|
|--------------|--------------------------------|
|--------------|--------------------------------|


  E  S  S  S  E  S  E  E  S  E.
|-------------------------------|
|---16-16-16-16-16-18-16-15-16--|
|-------------------------------|
|-------------------------------|
|-------------------------------|
|-------------------------------|


  E  S  S  S  E  S  E  E  E  S  S    H    E  E  S  E  S
|---------------------------------|---------------16-15-|
|---16-16-16-16-16-18-16-15-16-16-|-18------20-18-------|
|---------------------------------|---------------------|
|---------------------------------|---------------------|
|---------------------------------|---------------------|
|---------------------------------|---------------------|


   +H      +H       Q  E  E  Q   S  E  S
|-(15)----(15)----|------15-15--13-16-15--|
|-----------------|-----------------------|
|-----------------|-----------------------|
|-----------------|-----------------------|
|-----------------|-----------------------|
|-----------------|-----------------------|


   +H      +H       Q  E  E  Q   S  E  S
|-(15)----(15)----|------18-18--16-18-16-|
|-----------------|----------------------|
|-----------------|----------------------|
|-----------------|----------------------|
|-----------------|----------------------|
|-----------------|----------------------|


   +H      +H       Q  E  E  Q   S  E  S
|-(16)----(16)----|------18-18--16-18----|
|-----------------|-------------------18-|
|-----------------|----------------------|
|-----------------|----------------------|
|-----------------|----------------------|
|-----------------|----------------------|


   +H      +H       Q  E  E  Q   S  E  S
|-----------------|------16-16--15-16-15-|
|-(18)----(18)----|----------------------|
|-----------------|----------------------|
|-----------------|----------------------|
|-----------------|----------------------|
|-----------------|----------------------|


   +H      +H       Q  E  E  Q   S  E  S
|-(15)----(15)----|------15-15--13-16-15-|
|-----------------|----------------------|
|-----------------|----------------------|
|-----------------|----------------------|
|-----------------|----------------------|
|-----------------|----------------------|


   +H      +H       Q  E  E  Q   S  E  S
|-(15)----(15)----|------18-18--16-18-16-|
|-----------------|----------------------|
|-----------------|----------------------|
|-----------------|----------------------|
|-----------------|----------------------|
|-----------------|----------------------|


   +H      +H       Q  E  E  Q   S  E  S
|-(16)----(16)----|---------20--18-20-18-|
|-----------------|----------------------|
|-----------------|------17--------------|
|-----------------|----------------------|
|-----------------|----------------------|
|-----------------|----------------------|


                               Gtr III
   +H      +H       W          W          +W
|-(18)----(18)----|----------|----------|--------|
|-----------------|----------|----------|--------|
|-----------------|----------|-8--------|-(8)----|
|-----------------|----------|-8--------|-(8)----|
|-----------------|----------|-6--------|-(6)----|
|-----------------|----------|----------|--------|


  W          +W           W          +W
|----------|------------|----------|--------|
|----------|------------|----------|--------|
|----------|------------|----------|--------|
|-6--------|-(6)--------|-3--------|-(3)----|
|-6--------|-(6)--------|-3--------|-(3)----|
|-4--------|-(4)--------|-1--------|-(1)----|


  W          +W           W          +W
|----------|------------|----------|--------|
|----------|------------|-4--------|-(4)----|
|-3--------|-(3)--------|-3--------|-(3)----|
|-3--------|-(3)--------|-1--------|-(1)----|
|-1--------|-(1)--------|----------|--------|
|----------|------------|----------|--------|


  W          +W           W          +W
|----------|------------|----------|--------|
|----------|------------|----------|--------|
|-1--------|-(1)--------|-3--------|-(3)----|
|-1--------|-(1)--------|-3--------|-(3)----|
|----------|------------|-1--------|-(1)----|
|-4--------|-(4)--------|----------|--------|


  Gtr I
  W           W
|----------|--------------|
|----------|--------------|
|----------|--------------|
|----------|--------------|
|----------|--------------|
|----------|--------------|
|
| Gtr II
| W           W
|----------|--------------|
|----------|--------------|
|----------|--------------|
|----------|--------------|
|----------|--------------|
|----------|--------------|
|
| Gtr III
| W          +H     Q  Q
|----------|--------------|
|-4--------|-(4)----------|
|-3--------|-(3)----------|
|-1--------|-(1)----1--0--|
|----------|--------------|
|----------|--------------|


  S  S  E  E  S  S  +E   E  E  S  S    +H         +H
|-----------------------------------|-------------------------|
|------16-16-16-18-(18)-16-15-16-16-|-(16)-------(16)---------|
|---17------------------------------|-------------------------|
|-----------------------------------|-------------------------|
|-----------------------------------|-------------------------|
|-----------------------------------|-------------------------|
|
| E     E  E  E      E   E  E  E        E  E E E   E  E S E.
|----------3----------------1-------|-------------------------|
|-1-----4-----4----------3-----3----|------1-4----------------|
|--------------------3--------------|---1------5--------------|
|-----------------------------------|--------------6--6---8---|
|-----------------------------------|-------------------------|
|-----------------------------------|-------------------------|
|
| Q        Q         Q      Q           Q    Q     E  E S E.
|-----------------------------------|-------------------------|
|-----------------------------------|-------------------------|
|-----------------------------------|-------------------------|
|-5--------5---------3------3-------|---------------------3---|
|-3--------3------------------------|---6----6-----6--6-------|
|--------------------6------6-------|---4----4-----4--4---6---|


   S  S  E  E  S  S  +E   E  E  S  S
|------------------------------------|
|-------16-16-16-18-(18)-16-15-16-16-|
|----17------------------------------|
|------------------------------------|
|------------------------------------|
|------------------------------------|
|
|  E     E  E  E      E   E  E  E
|------------------------------------|
|-----------8----------------6-------|
|--------8-----8----------7-----7----|
|-10------------------8--------------|
|------------------------------------|
|------------------------------------|
|
|  Q        Q         Q      Q
|------------------------------------|
|------------------------------------|
|------------------------------------|
|--5--------5---------3------3-------|
|--3--------3------------------------|
|---------------------6------6-------|


   +H         +H            E  S  S  S  E    S  +E   E  E  E
|------------------------|-----------------------------------|
|-(16)-------(16)--------|----16-16-16-16---18-(18)-16-15-16-|
|------------------------|-----------------------------------|
|------------------------|-----------------------------------|
|------------------------|-----------------------------------|
|------------------------|-----------------------------------|
|
|   E  E E E   E  E S E.    E  E     E    E      E   E  E  E
|------------------------|-----------------------------------|
|--------4---------------|-----------8------------------6----|
|------5---5-------------|-----8----------8----------7-----7-|
|---6----------6--6---8--|-10--------------------8-----------|
|------------------------|-----------------------------------|
|------------------------|-----------------------------------|
|
|   Q    Q     E  E S E.    H                    H
|------------------------|-----------------------------------|
|------------------------|-----------------------------------|
|------------------------|-----------------------------------|
|---------------------3--|--5--------------------3-----------|
|---6----6-----6--6------|--3--------------------------------|
|---4----4-----4--4---6--|-----------------------6-----------|


  E  S  S  S  E    S  E  E  S  E.
|-----------------------------------|
|---16-16-16-16---16-18-16-15-16----|
|-----------------------------------|
|-----------------------------------|
|-----------------------------------|
|-----------------------------------|
|
| E  E     E    E     E  E  E     E
|-----------------------------------|
|----------4----------------4-------|
|----5----------5--------5--------5-|
|-6-------------------6-------------|
|-----------------------------------|
|-----------------------------------|
|
| W
|-----------------------------------|
|-----------------------------------|
|-----------------------------------|
|-----------------------------------|
|-6---------------------------------|
|-4---------------------------------|


  E  S  S  S  E    S  E  E  E  S  S    +H     E  E  S  E  S
|-----------------------------------|-----------------16-15-|
|---16-16-16-16---16-18-16-18-18-20-|-(20)------20-18-------|
|-----------------------------------|-----------------------|
|-----------------------------------|-----------------------|
|-----------------------------------|-----------------------|
|-----------------------------------|-----------------------|
|
| E  E     E    E     E  E  E  E        H     H
|----------3----------------1-------|-----------------------|
|----4----------4--------3-----3----|---4-----6-------------|
|-5-------------------3-------------|---5-----7-------------|
|-----------------------------------|---6-----8-------------|
|-----------------------------------|-----------------------|
|-----------------------------------|-----------------------|
|
| H                   H                 H     H
|-----------------------------------|-----------------------|
|-----------------------------------|-----------------------|
|-----------------------------------|-----------------------|
|-5-------------------3-------------|---------3-------------|
|-3---------------------------------|---6-------------------|
|---------------------6-------------|---4-----6-------------|


   +H         +H           Q    E  E  Q    S  E    S
|-(15)-------(15)-------|---------15-15---13-16---15-|
|-----------------------|----------------------------|
|-----------------------|----------------------------|
|-----------------------|----------------------------|
|-----------------------|----------------------------|
|-----------------------|----------------------------|
|
|   E  E E E   E  E E E    E  E E  E  E E  E    E
|-----------------------|----------------------------|
|--------------4--------|-------------4--------------|
|--------3----------3---|-------3----------3---------|
|------5---5------5---5-|-----5----5----5-------5----|
|---6-------------------|--6-------------------------|
|-----------------------|----------------------------|
|
|   W                     +H          Q    Q
|-----------------------|----------------------------|
|---4-------------------|-(4)------------------------|
|---3-------------------|-(3)------------------------|
|---1-------------------|-(1)---------1----0---------|
|-----------------------|----------------------------|
|-----------------------|----------------------------|


   +H         +H           Q    E  E  Q    S  E    S
|-(15)-------(15)-------|---------18-18---16-18---16-|
|-----------------------|----------------------------|
|-----------------------|----------------------------|
|-----------------------|----------------------------|
|-----------------------|----------------------------|
|-----------------------|----------------------------|
|
|   E  E E E   E  E E E    E  E E  E  E E  E    E
|-----------------------|----------------------------|
|--------------4--------|-------------4--------------|
|--------3----------3---|-------3----------3---------|
|------5---5------5---5-|-----5----5----5-------5----|
|---3-------------------|--3-------------------------|
|-----------------------|----------------------------|
|
|   W                     +W
|-----------------------|----------------------------|
|---1-------------------|-(1)------------------------|
|---0-------------------|-(0)------------------------|
|-----------------------|----------------------------|
|---3-------------------|-(3)------------------------|
|-----------------------|----------------------------|


   +H         +H           Q    E  E  S  E.    S  E    S    +W
|-(16)-------(16)-------|------------20-20----18-20---18-|-(18)-------------|
|-----------------------|--------------------------------|------------------|
|-----------------------|---------15---------------------|------------------|
|-----------------------|--------------------------------|------------------|
|-----------------------|--------------------------------|------------------|
|-----------------------|--------------------------------|------------------|
|
|   E  E E E   E  E E E    E  E E  E  E     E  E    E        E  E E E Q  Q
|--------------1--------|-------------1------------------|------------------|
|--------1----------1---|-------1--------------1---------|--------3---4--4--|
|------1---1------1---1-|-----1----1--------1-------1----|----------3-------|
|---3-------------------|--3-----------------------------|------3-----------|
|-----------------------|--------------------------------|---1--------------|
|-----------------------|--------------------------------|------------------|
|
|   W                     +W                                 W
|-----------------------|--------------------------------|------------------|
|-----------------------|--------------------------------|------------------|
|-----------------------|--------------------------------|---3--------------|
|---3-------------------|-(3)----------------------------|---3--------------|
|---3-------------------|-(3)----------------------------|---1--------------|
|---1-------------------|-(1)----------------------------|------------------|


   +H                        +H
|-(18)----------------------(18)--------------------|
|---------------------------------------------------|
|---------------------------------------------------|
|---------------------------------------------------|
|---------------------------------------------------|
|---------------------------------------------------|
|
|   S   S  S  S  S  S  S  S   S   S S  S S  S  S  S
|---------------------------------8-6-10-8-11-10-13-|
|------------------------11---9--11---13---15----16-|
|--20--------------13-12-13-------------------------|
|------------17-15-17-------------------------------|
|------20-18-20-------------------------------------|
|--22--23-------------------------------------------|
|
|   S   S  S  S  S  S  S  S   S   S S  S S  S  S  S
|--16-----------------------------4-3--6-4--8--6-10-|
|-------------------------8---6---8----9---11----13-|
|------------------10--8-10-------------------------|
|------------13-12-13-------------------------------|
|------17-15-17-------------------------------------|
|--18--20-------------------------------------------|


   W                            W
|----------------------------|--------------------------------|
|----------------------------|--------------------------------|
|----------------------------|--------------------------------|
|----------------------------|--------------------------------|
|----------------------------|--------------------------------|
|----------------------------|--------------------------------|
|
|  Q   E  E  +E   S  S  E  E    S S  E  E  E  +E   E  S  S  E
|----------------------------|--------------------------------|
|----------------------------|--------------------------------|
|----------------------------|--------------------------------|
|-13--13-13-(13)-11-13-------|--------------------------------|
|-------------------16-15-13-|-13---13-11-11-(11)-13-13-15----|
|----------------------------|--------------------------18-16-|
|
|  Q   E  E  +E   S  S  E  E    E    E  E  E  +E   E  S  S  E
|----------------------------|--------------------------------|
|-16-------------------------|--------------------------------|
|----------------------------|--------------------------------|
|----------------------------|--------------------------------|
|-------------------15-------|--------------------------11----|
|-16--16-16-(16)-18-18-15-15-|-15---15-13-13-(13)-15-15-15-13-|


  Gtr II
   Q   E  E  +E   E  E  E    Q   E  E  +E.  S  S  S  S  S
|-------------------------|-------------------------------|
|-------------------------|----------------------------20-|
|-------------------------|----------------------------20-|
|----------------18-17-18-|-18--18-18-(18)-------20-22----|
|-18--18-18-(18)----------|----------------18-20-23-------|
|-------------------------|-------------------------------|
|
| Gtr III
|  Q   E  E  +E   E  E  E    Q   E  E  +Q      S  S  S  S
|-------------------------|--------------------------4-11-|
|-----------------------6-|--6---6--6--(6)--------6----11-|
|----------------10--8----|--------------------5--8-------|
|-------------------------|-------------------------------|
|-11--11-11-(11)----------|-------------------------------|
|-------------------------|-------------------------------|


   Q   E  E  Q   E  E    E.  S  S  S  S  S  Q.    S  S
|-----16--------------|-20--20-20-18-16-15-16----16-20--|
|-18-----18-20--21-23-|---------------------------------|
|---------------------|---------------------------------|
|---------------------|---------------------------------|
|---------------------|---------------------------------|
|---------------------|---------------------------------|
|
|  Q   E  E  Q   E  E    E.  S  S  S  S  S  Q.    S  S
|--9--13--------------|-----------------------------16--|
|--------14-16--18-20-|-20--21-21-20-------18----18-----|
|---------------------|---------------------------------|
|---------------------|--------------22-20--------------|
|---------------------|---------------------------------|
|---------------------|---------------------------------|


  Gtr I
   W
|-------------------------------------------|
|-------------------------------------------|
|-------------------------------------------|
|-------------------------------------------|
|-------------------------------------------|
|-------------------------------------------|
|
| Gtr II
|  Q   +S   S  S  S  S  S  S  S  S  S  S  S
|-18--(18)----------16----18----20----21----|
|-------------19----19-14-19----19----19----|
|----------18----18----------18----18----18-|
|-------------------------------------------|
|-------------------------------------------|
|-------------------------------------------|
|
| Gtr III
|  Q    S   S  S  S  S  S  S  S  S  S  S  S
|-14----------------------------------------|
|-------------------------------14----------|
|-------------15----15----17----15----15----|
|----------16----16----16-20-16----16----16-|
|-------------------------------------------|
|-------------------------------------------|


   W                                              S  S  E  S  E  S  +E   E  E  E
|----------------------------------------------|---------------------------------|
|----------------------------------------------|---------------------------------|
|----------------------------------------------|-------19-19-19-20-(20)-19-17-15-|
|----------------------------------------------|---------------------------------|
|----------------------------------------------|----20---------------------------|
|----------------------------------------------|---------------------------------|
|
|  S  S  S  S  S  S  S  S  E  S  S  S  S  S  S    W
|-20----18----20----18----20-20-18-16----16-20-|-18------------------------------|
|-21----21-16-21----21-16-------------16-------|---------------------------------|
|----20----------20----------------------------|---------------------------------|
|----------------------------------------------|---------------------------------|
|----------------------------------------------|---------------------------------|
|----------------------------------------------|---------------------------------|
|
|  S  S  S  S  S  S  S  S  E  S  S  S  S  S  S    W
|-------------------------------------------11-|-10------------------------------|
|-16----------16----------16-16-15-13----13----|---------------------------------|
|-17----18----17----18----------------13-------|---------------------------------|
|----18-22-18----18-22-18----------------------|---------------------------------|
|----------------------------------------------|---------------------------------|
|----------------------------------------------|---------------------------------|


    Q.    S  S  +H       E  E  S  E  S  +E   E  E  S  S
|--13------------------|--------------------------------|
|--------13-13-(13)----|---15-15-15-16-(16)-15-13-15-15-|
|----------------------|--------------------------------|
|----------------------|--------------------------------|
|----------------------|--------------------------------|
|----------------------|--------------------------------|
|
|  +W                    W
|-(18)-----------------|--------------------------------|
|----------------------|--------------------------------|
|----------------------|--------------------------------|
|----------------------|--------------------------------|
|----------------------|--------------------------------|
|----------------------|--------------------------------|
|
|  +W                    W
|-(10)-----------------|--------------------------------|
|----------------------|--------------------------------|
|----------------------|--------------------------------|
|----------------------|--------------------------------|
|----------------------|--------------------------------|
|----------------------|--------------------------------|


   +H      H      E  E  S  E  S  +E   E  E  E
|---------------|-----------------------------|
|-(15)----13----|---15-15-15-16-(16)-15-13-11-|
|---------------|-----------------------------|
|---------------|-----------------------------|
|---------------|-----------------------------|
|---------------|-----------------------------|
|
|   W             W
|---------------|-----------------------------|
|---------------|-----------------------------|
|---------------|-----------------------------|
|---------------|-----------------------------|
|---------------|-----------------------------|
|---------------|-----------------------------|
|
|   W             W
|---------------|-----------------------------|
|---------------|-----------------------------|
|---------------|-----------------------------|
|---------------|-----------------------------|
|---------------|-----------------------------|
|---------------|-----------------------------|


   Q.    S  S  +Q    +S  S  S  S
|-13-----------------------------|
|-------13-13-(13)--(13)---13-15-|
|--------------------------------|
|--------------------------------|
|--------------------------------|
|--------------------------------|
|
| Gtr III
|  W
|--------------------------------|
|--------------------------------|
|--------------------------------|
|--------------------------------|
|--------------------------------|
|--------------------------------|


   Q   +S   S  S  S  E  E  E  S  S    +H      +H
|----------------------------------|-----------------|
|-16--(16)-16-16-16-18-16-15-16-16-|-(16)----(16)----|
|----------------------------------|-----------------|
|----------------------------------|-----------------|
|----------------------------------|-----------------|
|----------------------------------|-----------------|
|
|  H                 H                 H      +H
|----------------------------------|-----------------|
|----------------------------------|-----------------|
|----------------------------------|-----------------|
|----------------------------------|-----------------|
|--6-----------------6-------------|---3------(3)----|
|--4-----------------3-------------|---1------(1)----|


  E  S  S  S  E  S  +E   E  E  E   E  S  S  S  E  S  +E   E  S  E.
|--------------------------------|---------------------------------|
|---16-16-16-16-18-(18)-16-15-16-|---16-16-16-16-18-(18)-16-15-16--|
|--------------------------------|---------------------------------|
|--------------------------------|---------------------------------|
|--------------------------------|---------------------------------|
|--------------------------------|---------------------------------|
|
| H                  H             H                 +H
|--------------------------------|---------------------------------|
|--------------------------------|---------------------------------|
|--------------------------------|---------------------------------|
|-1------------------3-----------|---------------------------------|
|--------------------1-----------|-3-----------------(3)-----------|
|-4------------------------------|-1-----------------(1)-----------|


  E  S  S  S  E  S  E  E  E  S  S
|---------------------------------|
|---16-16-16-16-16-18-16-15-16-16-|
|---------------------------------|
|---------------------------------|
|---------------------------------|
|---------------------------------|
|
| H                 H
|---------------------------------|
|---------------------------------|
|---------------------------------|
|-1-----------------3-------------|
|-------------------1-------------|
|-4-------------------------------|


   H    E  E  S  E  S    +H         +H
|---------------16-15-|-(15)-------(15)-------|
|-18------20-18-------|-----------------------|
|---------------------|-----------------------|
|---------------------|-----------------------|
|---------------------|-----------------------|
|---------------------|-----------------------|
|
| Gtr II
|  W                      E  E E E   E  E E E
|---------------------|-----------------------|
|---------------------|--------------4--------|
|---------------------|------0-3----------3---|
|---------------------|---1------5------5---5-|
|---------------------|-----------------------|
|---------------------|-----------------------|
|
| Gtr III
|  H    H                 W
|---------------------|-----------------------|
|---------------------|-----------------------|
|---------------------|---3-------------------|
|--1----3-------------|---1-------------------|
|-------1-------------|-----------------------|
|--4------------------|-----------------------|


   Q    E  E  Q    S  E    S    +H         +H
|---------15-15---13-16---15-|-(15)-------(15)--------|
|----------------------------|------------------------|
|----------------------------|------------------------|
|----------------------------|------------------------|
|----------------------------|------------------------|
|----------------------------|------------------------|
|
|  E  E E  E  E E  E    E        E  E E E   E  E E E
|----------------------------|------------------------|
|-------------4--------------|--------------4---------|
|-------3----------3---------|--------3----------3----|
|-----5----5----5-------5----|------5---5------5---5--|
|--6-------------------------|---3--------------------|
|----------------------------|------------------------|
|
| +H          Q    Q             W
|----------------------------|------------------------|
|----------------------------|---1--------------------|
|-(3)------------------------|---0--------------------|
|-(1)---------1----0---------|------------------------|
|----------------------------|---3--------------------|
|----------------------------|------------------------|


   Q    E  E  Q     S  E    S    +H         +H
|---------18-18----16-18---16-|-(16)-------(16)-------|
|-----------------------------|-----------------------|
|-----------------------------|-----------------------|
|-----------------------------|-----------------------|
|-----------------------------|-----------------------|
|-----------------------------|-----------------------|
|
|  E  E E  E  E  E  E    E        E  E E E   E  E E E
|-----------------------------|--------------1--------|
|-------------4---------------|--------1----------1---|
|-------3-----------3---------|------1---1------1---1-|
|-----5----5-----5-------5----|---3-------------------|
|--3--------------------------|-----------------------|
|-----------------------------|-----------------------|
|
| +H         +H                   W
|-----------------------------|-----------------------|
|-(1)--------(1)--------------|-----------------------|
|-(0)--------(0)--------------|-----------------------|
|-----------------------------|---3-------------------|
|-(3)--------(3)--------------|---3-------------------|
|-----------------------------|---1-------------------|


   Q    E  E  Q     S  E    S    +H         +H
|---------18-18----16-18------|-----------------------|
|--------------------------18-|-(18)-------(18)-------|
|-----------------------------|-----------------------|
|-----------------------------|-----------------------|
|-----------------------------|-----------------------|
|-----------------------------|-----------------------|
|
|  E  E E  E  E  E  E    E        E  E E E   E  E E E
|-------------1---------------|-----------------------|
|-------1-----------1---------|--------------3--------|
|-----1----1-----1-------1----|--------3----------3---|
|--3--------------------------|------3---3------3---3-|
|-----------------------------|---1-------------------|
|-----------------------------|-----------------------|
|
| +H         +H                   W
|-----------------------------|-----------------------|
|-----------------------------|-----------------------|
|-----------------------------|---3-------------------|
|-(3)--------(3)--------------|---3-------------------|
|-(3)--------(3)--------------|---1-------------------|
|-(1)--------(1)--------------|-----------------------|


   Q    E  E  Q     S  E    S    +H         +H
|---------16-16----15-16---15-|-(15)-------(15)-------|
|-----------------------------|-----------------------|
|-----------------------------|-----------------------|
|-----------------------------|-----------------------|
|-----------------------------|-----------------------|
|-----------------------------|-----------------------|
|
|  E  E E  E  E  E  E    E        E  E E E   E  E E E
|-----------------------------|-----------------------|
|-------------3---------------|--------------4--------|
|-------3-----------3---------|------0-3----------3---|
|-----3----3-----3-------3----|---1------5------5---5-|
|--1--------------------------|-----------------------|
|-----------------------------|-----------------------|
|
| +H         +H                   W
|-----------------------------|-----------------------|
|-----------------------------|-----------------------|
|-(3)--------(3)--------------|---3-------------------|
|-(3)--------(3)--------------|---1-------------------|
|-(1)--------(1)--------------|-----------------------|
|-----------------------------|-----------------------|


   Q    E  E  Q    S  E    S    +H         +H
|---------15-15---13-16---15-|-(15)-------(15)-------|
|----------------------------|-----------------------|
|----------------------------|-----------------------|
|----------------------------|-----------------------|
|----------------------------|-----------------------|
|----------------------------|-----------------------|
|
|  E  E E  E  E E  E    E        E  E E E   E  E E E
|----------------------------|-----------------------|
|-------------4--------------|--------------4--------|
|-------3----------3---------|--------3----------3---|
|-----5----5----5-------5----|------5---5------5---5-|
|--6-------------------------|---3-------------------|
|----------------------------|-----------------------|
|
| +H          Q    Q             W
|----------------------------|-----------------------|
|----------------------------|---1-------------------|
|-(3)------------------------|---0-------------------|
|-(1)---------1----0---------|-----------------------|
|----------------------------|---3-------------------|
|----------------------------|-----------------------|


   Q    E  E  Q     S  E    S    +H         +H
|---------18-18----16-18---16-|-(16)-------(16)-------|
|-----------------------------|-----------------------|
|-----------------------------|-----------------------|
|-----------------------------|-----------------------|
|-----------------------------|-----------------------|
|-----------------------------|-----------------------|
|
|  E  E E  E  E  E  E    E        E  E E E   E  E E E
|-----------------------------|--------------1--------|
|-------------4---------------|--------1----------1---|
|-------3-----------3---------|------1---1------1---1-|
|-----5----5-----5-------5----|---3-------------------|
|--3--------------------------|-----------------------|
|-----------------------------|-----------------------|
|
| +H         +H                   W
|-----------------------------|-----------------------|
|-(1)--------(1)--------------|-----------------------|
|-(0)--------(0)--------------|-----------------------|
|-----------------------------|---3-------------------|
|-(3)--------(3)--------------|---3-------------------|
|-----------------------------|---1-------------------|


   Q    E  E  Q     S  E    S    +H      +H
|------------20----18-20---18-|-(18)----(18)----|
|-----------------------------|-----------------|
|---------17------------------|-----------------|
|-----------------------------|-----------------|
|-----------------------------|-----------------|
|-----------------------------|-----------------|
|
|  E  E E  E  E  E  E    E        W
|-------------1---------------|-----------------|
|-------1-----------1---------|-----------------|
|-----1----1-----1-------1----|-----------------|
|--3--------------------------|-----------------|
|-----------------------------|---4-------------|
|-----------------------------|-----------------|
|
| +H         +H                   W
|-----------------------------|-----------------|
|-----------------------------|-----------------|
|-----------------------------|---3-------------|
|-(3)--------(3)--------------|---3-------------|
|-(3)--------(3)--------------|---1-------------|
|-(1)--------(1)--------------|-----------------|


  Gtr II
  +W           W          W          W
|------------|----------|----------|------|
|------------|----------|----------|------|
|------------|----------|----------|------|
|------------|----------|----------|------|
|-(4)--------|----------|----------|------|
|------------|----------|----------|------|
|
| Gtr III
| +W           W          W          W
|------------|----------|----------|------|
|------------|----------|----------|------|
|-(3)--------|----------|----------|------|
|-(3)--------|----------|----------|------|
|-(1)--------|----------|----------|------|
|------------|----------|----------|------|


  Gtr I
  Q  E  E  Q   S  E  S    +H         +H
|------17-17--15-18-17-|-(17)-------(17)-------|
|----------------------|-----------------------|
|----------------------|-----------------------|
|----------------------|-----------------------|
|----------------------|-----------------------|
|----------------------|-----------------------|
|
| Gtr II
| W                        E  E E E   E  E E E
|----------------------|--------------1--------|
|----------------------|--------1----------1---|
|----------------------|------2---2------2---2-|
|----------------------|---3-------------------|
|----------------------|-----------------------|
|----------------------|-----------------------|
|
| Gtr III
| W                        W
|----------------------|-----------------------|
|----------------------|-----------------------|
|----------------------|---5-------------------|
|----------------------|---3-------------------|
|----------------------|-----------------------|
|----------------------|-----------------------|


   Q    E  E  Q     S  E    S    +H         +H
|---------17-17----15-18---17-|-(17)-------(17)--------|
|-----------------------------|------------------------|
|-----------------------------|------------------------|
|-----------------------------|------------------------|
|-----------------------------|------------------------|
|-----------------------------|------------------------|
|
|  E  E E  E  E  E  E    E        E  E E E   E  E E E
|-------------1---------------|--------------1---------|
|-------1-----------1---------|--------1----------1----|
|-----2----2-----2-------2----|------2---2------2---2--|
|--3--------------------------|---0--------------------|
|-----------------------------|------------------------|
|-----------------------------|------------------------|
|
| +H         +H                   W
|-----------------------------|------------------------|
|-----------------------------|------------------------|
|-(5)--------(5)--------------|---2--------------------|
|-(3)--------(3)--------------|---0--------------------|
|-----------------------------|------------------------|
|-----------------------------|------------------------|


   Q    E  E  Q     S  E    S    +H         +H
|---------20-20----18-20---18-|-(18)-------(18)-------|
|-----------------------------|-----------------------|
|-----------------------------|-----------------------|
|-----------------------------|-----------------------|
|-----------------------------|-----------------------|
|-----------------------------|-----------------------|
|
|  E  E E  E  E  E  E    E        E  E E E   E  E E E
|-------------1---------------|--------------3--------|
|-------1-----------1---------|--------3----------3---|
|-----2----2-----2-------2----|---0--3---3------3---3-|
|--0--------------------------|-----------------------|
|-----------------------------|-----------------------|
|-----------------------------|-----------------------|
|
| +H         +H                   W
|-----------------------------|-----------------------|
|-----------------------------|-----------------------|
|-(2)--------(2)--------------|-----------------------|
|-(0)--------(0)--------------|---5-------------------|
|-----------------------------|---5-------------------|
|-----------------------------|---3-------------------|


   Q    E  E  Q     S  E    S    +H         +H
|---------20-20----18-20------|-----------------------|
|--------------------------20-|-(20)-------(20)-------|
|-----------------------------|-----------------------|
|-----------------------------|-----------------------|
|-----------------------------|-----------------------|
|-----------------------------|-----------------------|
|
|  E  E E  E  E  E  E    E        E  E E E   E  E E E
|-------------3---------------|-----------------------|
|-------3-----------3---------|--------------5--------|
|-----3----3-----3-------3----|--------5----------5---|
|--5--------------------------|------5---5------5---5-|
|-----------------------------|---3-------------------|
|-----------------------------|-----------------------|
|
| +H         +H                   W
|-----------------------------|-----------------------|
|-----------------------------|-----------------------|
|-----------------------------|---5-------------------|
|-(5)--------(5)--------------|---5-------------------|
|-(5)--------(5)--------------|---3-------------------|
|-(3)--------(3)--------------|-----------------------|


   Q    E  E  Q     S  E    S    +H         +H
|---------18-18----17-18---17-|-(17)-------(17)-------|
|-----------------------------|-----------------------|
|-----------------------------|-----------------------|
|-----------------------------|-----------------------|
|-----------------------------|-----------------------|
|-----------------------------|-----------------------|
|
|  E  E E  E  E  E  E    E        E  E E E   E  E E E
|-----------------------------|--------------1--------|
|-------------5---------------|--------1----------1---|
|-------5-----------5---------|------2---2------2---2-|
|-----5----5-----5-------5----|---3-------------------|
|--3--------------------------|-----------------------|
|-----------------------------|-----------------------|
|
| +H         +H                   W
|-----------------------------|-----------------------|
|-----------------------------|-----------------------|
|-(5)--------(5)--------------|---5-------------------|
|-(5)--------(5)--------------|---3-------------------|
|-(3)--------(3)--------------|-----------------------|
|-----------------------------|-----------------------|


   Q    E  E  Q     S  E    S    +H         +H
|---------17-17----15-18---17-|-(17)-------(17)-------|
|-----------------------------|-----------------------|
|-----------------------------|-----------------------|
|-----------------------------|-----------------------|
|-----------------------------|-----------------------|
|-----------------------------|-----------------------|
|
|  E  E E  E  E  E  E    E        E  E E E   E  E E E
|-------------1---------------|--------------1--------|
|-------1-----------1---------|--------1----------1---|
|-----2----2-----2-------2----|------2---2------2---2-|
|--3--------------------------|---0-------------------|
|-----------------------------|-----------------------|
|-----------------------------|-----------------------|
|
| +H         +H                   W
|-----------------------------|-----------------------|
|-----------------------------|-----------------------|
|-(5)--------(5)--------------|---2-------------------|
|-(3)--------(3)--------------|---0-------------------|
|-----------------------------|-----------------------|
|-----------------------------|-----------------------|


   Q    E  E  Q     S  E    S    +H         +H
|---------20-20----18-20---18-|-(18)-------(18)-------|
|-----------------------------|-----------------------|
|-----------------------------|-----------------------|
|-----------------------------|-----------------------|
|-----------------------------|-----------------------|
|-----------------------------|-----------------------|
|
|  E  E E  E  E  E  E    E        E  E E E   E  E E E
|-------------1---------------|--------------3--------|
|-------1-----------1---------|--------3----------3---|
|-----2----2-----2-------2----|---0--3---3------3---3-|
|--0--------------------------|-----------------------|
|-----------------------------|-----------------------|
|-----------------------------|-----------------------|
|
| +H         +H                   W
|-----------------------------|-----------------------|
|-----------------------------|-----------------------|
|-(2)--------(2)--------------|-----------------------|
|-(0)--------(0)--------------|---5-------------------|
|-----------------------------|---5-------------------|
|-----------------------------|---3-------------------|


   Q    E  E  Q     S  E    S    +W
|------------22----20-22---20-|-(20)---------------|
|-----------------------------|--------------------|
|---------19------------------|--------------------|
|-----------------------------|--------------------|
|-----------------------------|--------------------|
|-----------------------------|--------------------|
|
|  E  E E  E  E  E  E    E        E  E E E E E E E
|-------------3---------------|--------------------|
|-------3-----------3---------|------------5-------|
|-----3----3-----3-------3----|--------5-------5---|
|--5--------------------------|------5---5---5---5-|
|-----------------------------|---3----------------|
|-----------------------------|--------------------|
|
| +H         +H                   W
|-----------------------------|--------------------|
|-----------------------------|--------------------|
|-----------------------------|---5----------------|
|-(5)--------(5)--------------|---5----------------|
|-(5)--------(5)--------------|---3----------------|
|-(3)--------(3)--------------|--------------------|


   +W                    W
|-(20)-----------------|-----------------|
|----------------------|-----------------|
|----------------------|-----------------|
|----------------------|-----------------|
|----------------------|-----------------|
|----------------------|-----------------|
|
|   E  E E E  E  E E E   E E E E E E E E
|----------------------|---------1-------|
|-------------5--------|-----1-------1---|
|--------5---------5---|---2---2---2---2-|
|------5---5-----5---5-|-3---------------|
|---3------------------|-----------------|
|----------------------|-----------------|
|
|  +H        +H          W
|----------------------|-----------------|
|----------------------|-----------------|
|--(5)-------(5)-------|-5---------------|
|--(5)-------(5)-------|-3---------------|
|--(3)-------(3)-------|-----------------|
|----------------------|-----------------|


   W                    W
|---------------------|-----------------|
|---------------------|-----------------|
|---------------------|-----------------|
|---------------------|-----------------|
|---------------------|-----------------|
|---------------------|-----------------|
|
|  E  E E E  E  E E E   E E E E E E E E
|------------1--------|---------1-------|
|-------1---------1---|-----1-------1---|
|-----2---2-----2---2-|---2---2---2---2-|
|--3------------------|-0---------------|
|---------------------|-----------------|
|---------------------|-----------------|
|
| +H        +H          W
|---------------------|-----------------|
|---------------------|-----------------|
|-(5)-------(5)-------|-2---------------|
|-(3)-------(3)-------|-0---------------|
|---------------------|-----------------|
|---------------------|-----------------|


  Gtr II
   E  E E E E E E E   E E E E E E E E    E  E E E  E  E E E   E E E E E E E E
|-----------1-------|---------3-------|------------3--------|-----------------|
|-------1-------1---|-----3-------3---|-------3---------3---|---------5-------|
|-----2---2---2---2-|-0-3---3---3---3-|-----3---3-----3---3-|-----5-------5---|
|--0----------------|-----------------|--5------------------|---5---5---5---5-|
|-------------------|-----------------|---------------------|-3---------------|
|-------------------|-----------------|---------------------|-----------------|
|
| Gtr III
| +W                  W                 +H        +H          W
|-------------------|-----------------|---------------------|-----------------|
|-------------------|-----------------|---------------------|-----------------|
|-(2)---------------|-----------------|---------------------|-5---------------|
|-(0)---------------|-5---------------|-(5)-------(5)-------|-5---------------|
|-------------------|-5---------------|-(5)-------(5)-------|-3---------------|
|-------------------|-3---------------|-(3)-------(3)-------|-----------------|


   E  E E E  E  E E E   E E E E E E E E
|---------------------|---------1-------|
|------------5--------|-----1-------1---|
|-------5---------5---|---2---2---2---2-|
|-----5---5-----5---5-|-3---------------|
|--3------------------|-----------------|
|---------------------|-----------------|
|
| +H        +H          W
|---------------------|-----------------|
|---------------------|-----------------|
|-(5)-------(5)-------|-5---------------|
|-(5)-------(5)-------|-3---------------|
|-(3)-------(3)-------|-----------------|
|---------------------|-----------------|


   E  E E E  E  E E E   E E E E E E E E
|------------1--------|---------1-------|
|-------1---------1---|-----1-------1---|
|-----2---2-----2---2-|---2---2---2---2-|
|--3------------------|-0---------------|
|---------------------|-----------------|
|---------------------|-----------------|
|
| +H        +H          W
|---------------------|-----------------|
|---------------------|-----------------|
|-(5)-------(5)-------|-2---------------|
|-(3)-------(3)-------|-0---------------|
|---------------------|-----------------|
|---------------------|-----------------|


   E  E E E  E  E E E   E E E E E E E E
|------------1--------|---------3-------|
|-------1---------1---|-----3-------3---|
|-----2---2-----2---2-|-0-3---3---3---3-|
|--0------------------|-----------------|
|---------------------|-----------------|
|---------------------|-----------------|
|
| +H        +H          W
|---------------------|-----------------|
|---------------------|-----------------|
|-(2)-------(2)-------|-----------------|
|-(0)-------(0)-------|-5---------------|
|---------------------|-5---------------|
|---------------------|-3---------------|


   E  E E E  E  E E E   E E E E  E  E E E
|------------3--------|-------------------*|
|-------3---------3---|----------5--------*|
|-----3---3-----3---3-|-----5---------5---*|
|--5------------------|---5---5-----5---5-*|
|---------------------|-3-----------------*|
|---------------------|-------------------*|
|
| +H        +H          H       +H
|---------------------|-------------------*|
|---------------------|-------------------*|
|---------------------|-5-------(5)-------*|
|-(5)-------(5)-------|-5-------(5)-------*|
|-(5)-------(5)-------|-3-------(3)-------*|
|-(3)-------(3)-------|-------------------*|



Duration Legend
---------------
W - whole; H - half; Q - quarter; E - 8th; S - 16th; T - 32nd; X - 64th; a - acciaccatura
+ - note tied to previous; . - note dotted; .. - note double dotted
Uncapitalized letters represent notes that are staccato (1/2 duration)
Irregular groupings are notated above the duration line
Duration letters will always appear directly above the note/fret number it represents the
duration for.  Duration letters with no fret number below them represent rests.  Multi-
bar rests are notated in the form Wxn, where n is the number of bars to rest for.  Low
melody durations appear below the staff

Tablature Legend
----------------
 h   - hammer-on
 p   - pull-off
 b   - bend
 pb  - pre-bend
 r   - bend release (if no number after the r, then release immediately)
 /\  - slide into or out of (from/to "nowhere")
 s   - legato slide
 S   - shift slide
 - natural harmonic
[n]  - artificial harmonic
n(n) - tapped harmonic
 ~   - vibrato
 tr  - trill
 T   - tap
 TP  - trem. picking
 PM  - palm muting
\n/  - tremolo bar dip; n = amount to dip
 \n  - tremolo bar down
 n/  - tremolo bar up
/n\  - tremolo bar inverted dip
 =   - hold bend; also acts as connecting device for hammers/pulls
 <> - volume swell (louder/softer)
 x   - on rhythm slash represents muted slash
 o   - on rhythm slash represents single note slash

Misc Legend
-----------
 |  - bar
||  - double bar
||o - repeat start
o|| - repeat end
*|  - double bar (ending)
 :  - bar (freetime)
 $  - Segno
 &  - Coda
Tempo markers -  = BPM(8/16=s8/s16), where s8 = swing 8ths, s16 = swing 16ths





Comments


Popular X Japan tabs & chords
Dahlia Bass Tabs
Endless Rain 2 Bass Tabs
Art Of Life Chords
Blue Blood Tabs
Crucify My Love Tabs
Forever Love Tabs
Miscast Tabs
Rose Of Pain Tabs
Silent Jealousy Tabs
Tears Ukulele


Song lyrics



↑ Back to top | Tablatures and chords are parodies/interpretations of the original songs. You may use it for private study, scholarship, research or language learning purposes only
© 2014 AZChords.com Contact us | Privacy policy | DMCA | Add/correct tabs | Request tabs | Top 50 tabs