>
 >
Last Song

Last Song Guitar Tabs

X Japan - Last Song chords, tabs, tablatures, lyrics

Guitar lessons | Add/correct | Request | Top 50 tabs Artists:  A B C D E F G H I J K L M N O P Q R S T U V W X Y Z 0-9

Last Song Guitar Tabs – X Japan

CD, Sheet music, Poster

Do you like Last Song? Share with your friends now
Tabs
THE LAST SONG (CLASSIC GUITAR)

X Japan On Guitar: Track 1



Tuning: E,A,D,G,B,E

Roadmap: A(4x), B, C(first end), A(only one time), B, C(second end),
         D, C(third end), E(End)



A, play four times

||-3-----3-----3-----3-----|-3-----3-----3-----3-5---|
||-5-----5-----5-----5-----|-5-----5-----5-----5-----|
||----5-----5-----5-----5--|----5-----5-----5--------|
||-------------------------|-------------------------|
||-3-----------------------|-------------------------|
||-------------------------|-------------------------|

|-------------------------|-5-----5-----------------||
|-3-----3-----3-----3-----|-3-----3-----3-----3-----||
|-4-----4-----4-----4-----|-------------4-----4-----||
|----5-----5-----5-----5--|----5-----5-----5-----5--||
|-------------------------|-------------------------||
|-3-----------------------|-------------------------||




B

||-3-----3-----3-----3-----|-3-----3-----3-----3-5---|
||-5-----5-----5-----5-----|-5-----5-----5-----5-----|
||----5-----5-----5-----5--|----5-----5-----5--------|
||-------------------------|-------------------------|
||-3-----------------------|-3-----------------------|
||-------------------------|-------------------------|

|-3-----3-----3-----3-----|-2-----2-----2--3--2--3--||
|-3-----3-----3-----3-----|-3-----3-----3-----------||
|----2-----2-----2-----2--|----2-----2--------------||
|-0-----------------------|-0-----------------------||
|-------------------------|-------------------------||
|-------------------------|-------------------------||




C

||-2--0-0---------3--2--3--|-3---5------5----8----|
||-------------------------|---------3--7---10----|
||-------------0-----------|----------------------|
||----------2--------------|-0--------------------|
||-3-----------------------|----------------------|
||-------------------------|----------------------|

|--8--7-7----------5--7--|-5---3--------3--2--3--|
|-10--8-8----------------|-----5-----------------|
|--0---------------------|-----------------------|
|------------------------|-----------------0-----|
|-------------9----------|-----------------------|
|------------------------|-0---------0-----------|

                          First End for "C"
|-2--0-0---------3--2--3--|-3-----------5------------||
|-------------------------|-3-----3-----7-----7------||
|-------------0-----------|----2-----2-----7-----7---||
|----------2--------------|-0------------------------||
|-3-----------------------|--------------------------||
|-------------------------|--------------------------||

Second end for "C"              Third end for "C"
|-3--------5-5-----------||       |-3---5--------10-10-----||
|-3-----3--7-7-----3--3--||       |-5---7--------10-10-----||
|----2-------------------||       |------------7--------7--||
|-0----------------------||       |---------0--------------||
|------------------------||       |------------------------||
|------------------------||       |------------------------||




D

||-----------------------|---------------0-----0--|
||-3---------------------|--------1--1------------|
||-3---------------------|-0^-0-------------3-----|
||------3----0--3--2--3--|-2l---------------------|
||-1---------------------|-3l---------------------|
||-----------------------|------------------------|

|-------1------------0------|-------------1-----------|
|----1------------1---------|-------------1--------3--|
|-2--------2h3-2--------2h3-|-2p0------2--------3-----|
|---------------------------|-----3----------3--3-----|
|-1------------0------------|-5-----------------3-----|
|---------------------------|-------------------------|

|------------------------|-------0-----0-----3----|
|-3----------3-----------|----1-----1-----1-------|
|---------3--------------|-0^---------------------|
|-----3---------3--2--3--|-2l---------------------|
|-1----------------------|-3l---------------------|
|------------------------|------------------------|

|-1p0---------------0-----|-0-----0-----1-----0-----|
|-----3-------------3-----|-3-----3-----3-----1-----|
|----------2-----2-----2--|----2-----2-----2-----0--|
|-0-----------0-----------|-------------0-----------|
|-------------------------|-------------------3-----|
|-------------------------|-------------------------|

|-0-----------------------|-0-----0-----3-----3-----|
|-------3-----3-----3-----|-1-----1-----1-----1-----|
|-------3-----3-----3-----|----0-----0-----0-----0--|
|----3-----3-----3-----3--|-------------------------|
|-1-----------------------|-3-----------------------|
|-------------------------|-------------------------|

|-1--------1--0--------0--|-1-----1-----1-----0-----|
|-1-----1-----1-----1-----|-1-----1-----1-----1-----|
|----2-----------0--------|----2-----2-----2-----0--|
|-------------------------|-3-----------------2-----|
|-1-----------0-----------|-------------------------|
|-------------------------|-------------------------|

|-------------------------|-3-----3-----3--3--2--3--||
|-3-----3-----3--------3--|-1-----1-----1-----------||
|-3-----3-----3-----3-----|----0-----0--------------||
|----3-----3-----3--------|-------------------------||
|-1-----------------------|-3-----------------------||
|-------------------------|-------------------------||




E

||-2---3-----------------|-0----0-----0--3--2--3--|
||-0------------------0--|-0----0-----0-----------|
||-0---------------0-----|---0-----0--------------|
||--------------2--------|------------------0-----|
||-----------------------|------------------------|
||-0---------0-----------|-0----------------------|

|-2^-0-0---------3--2--3--|-3---5------5----8----|
|-0l----------------------|---------3--3---------|
|-0l----------0-----------|----------------------|
|-2l-------2--------------|-0--------------------|
|-3l----------------------|----------------------|
|-------------------------|----------------------|

|--8--7-7--------5--5--7--|-5---3--------3--2--3--|
|-10--8-8-----------------|-----5-----------------|
|--0----------------------|-----------------------|
|-------------------------|-----------------0-----|
|-------------9-----------|-----------------------|
|-------------------------|-0---------0-----------|

|-2^-0-0---------3--2--3--|-3-----------5--------|
|-0l----------------------|-3-----3-----7--------|
|-0l----------0-----------|----2-----2-----------|
|-2l-------2--------------|-0--------------------|
|-3l----------------------|----------------------|
|-------------------------|----------------------|

|------------3----|-2^---0------------||
|-----------------|-0l----------------||
|-----------------|-0l----------------||
|-----------------|-2l----------------||
|-----------------|-3l----------------||
|-----------------|-------------------||


Thanks for reading my tab!





Comments


Popular X Japan tabs & chords
Blue Blood Bass Tabs
Endless Rain 2 Bass Tabs
Kurenai 2 Bass Tabs
Crucify My Love Chords
Tears Chords
Art Of Life 1 Tabs
Endless Rain 1 Tabs
Longing 2 Tabs
Love Replica Tabs
Art Of Life Ukulele


Song lyrics



↑ Back to top | Tablatures and chords are parodies/interpretations of the original songs. You may use it for private study, scholarship, research or language learning purposes only
© 2014 AZChords.com Contact us | Privacy policy | DMCA | Add/correct tabs | Request tabs | Top 50 tabs