>
 >
Kurenai

Kurenai Bass Tabs

X Japan - Kurenai chords, tabs, tablatures, lyrics

Guitar lessons | Add/correct | Request | Top 50 tabs Artists:  A B C D E F G H I J K L M N O P Q R S T U V W X Y Z 0-9

Kurenai Bass Tabs – X Japan

CD, Sheet music, Poster

Do you like Kurenai? Share with your friends now
Bass TabsBass Tabs v2ChordsTabs

KURENAI (Bassline)
As recorded by X Japan


	



Gtr I (Eb Ab Db Gb) - 'Finger Bass'
Gtr II (Eb Ab Db Gb Bb Eb) - 'Strings'
Gtr III (Eb Ab Db Gb Bb Eb) - 'Slow Strings'

  Q=80
 2/4    4/4
  Gtr II
  W      Q  E E Q  E E   Q  E E Q  Q    E E E E Q  Q    W
|------|---------------|--------------|---------------|------|
|------|-1--1-0-1----3-|-5--3-1-0-----|---------3--1--|-0----|
|------|-2-------------|-0------------|-2-----4-------|-1----|
|------|-2-------------|-2------------|-3-------------|-2----|
|------|-3-------------|-2------------|-0-------------|------|
|------|---------------|--------------|---------------|-4----|
|
| Gtr III
| W      W               W              W               W
|------|---------------|--------------|---------------|------|
|------|---------------|--------------|---------------|------|
|------|---------------|--------------|---------------|------|
|------|---------------|--------------|---------------|------|
|------|---------------|--------------|---------------|------|
|------|-5-------------|-3------------|-1-------------|-0----|


  Q  E E Q  E E   Q  E E Q  Q    Q.   E Q  Q    W
|---------------|--------------|--------------|------|
|-1--1-0-1----3-|-5--3-1-0-----|--------------|------|
|-2-------------|-0------------|-2----2-0--4--|-2----|
|-2-------------|-2------------|-3------0-----|-2----|
|-3-------------|-2------------|-0------2-----|------|
|---------------|--------------|--------------|------|
|
| W               W              H      H       W
|---------------|--------------|--------------|------|
|---------------|--------------|--------------|------|
|---------------|--------------|--------------|------|
|---------------|--------------|--------------|------|
|---------------|--------------|--------------|------|
|-5-------------|-3------------|-1------3-----|-5----|


  Q=100
   W           W          W          W
|--5---------|----------|----------|------|
|------------|----------|----------|------|
|------------|----------|----------|------|
|------------|----------|----------|------|
|------------|----------|----------|------|
|------------|----------|----------|------|
|
| +W           W          W          W
|------------|----------|----------|------|
|------------|----------|----------|------|
|------------|----------|----------|------|
|------------|----------|----------|------|
|------------|----------|----------|------|
|-(5)--------|----------|----------|------|


  Gtr I
  W          W          W          W
|----------|----------|----------|------|
|----------|----------|----------|------|
|----------|----------|----------|------|
|----------|----------|----------|------|


  W          W          W          W
|----------|----------|----------|------|
|----------|----------|----------|------|
|----------|----------|----------|------|
|----------|----------|----------|------|


  W          W          W          W
|----------|----------|----------|------|
|----------|----------|----------|------|
|----------|----------|----------|------|
|----------|----------|----------|------|


  W          W          W          W
|----------|----------|----------|------|
|----------|----------|----------|------|
|----------|----------|----------|------|
|----------|----------|----------|------|


  W          W          W          W
|----------|----------|----------|------|
|----------|----------|----------|------|
|----------|----------|----------|------|
|----------|----------|----------|------|


  W          W          W          W
|----------|----------|----------|------|
|----------|----------|----------|------|
|----------|----------|----------|------|
|----------|----------|----------|------|


                        Q=80       Q=70
  W          W          W          W
|----------|----------|----------|------|
|----------|----------|----------|------|
|----------|----------|----------|------|
|----------|----------|----------|------|


  Q=300
  W          Q  E E E E Q    Q.   E +Q   Q    Q  Q  E E E E
|----------|---------------|-5----4-(4)-----|----2----------|
|----------|---------------|-------------5--|-3-------------|
|----------|-0--0-0-0-0-0--|----------------|---------------|
|----------|---------------|----------------|-------1-1-1-1-|


  Q.   E +Q   Q    Q  E E E E E E   Q.   E +Q   Q    W
|----------------|----------------|-5----4-(4)-----|------|
|-------------5--|----------------|-------------5--|-3----|
|------5-(5)-----|----------------|----------------|------|
|-3--------------|-5--5-5-5-5-5-5-|----------------|------|


  Q  E E +E  E Q    Q  Q  E E Q    E E E E +E  E Q    Q  Q  E E Q
|------4-(4)-4-9--|--------------|------------------|--------------|
|-2--2------------|--------------|------------------|--------------|
|-----------------|-0--0--0-0-0--|-0-0-0-0-(0)-0-0--|--------------|
|-----------------|--------------|------------------|-1--1--1-1-1--|


  E E E E +E  E Q    Q  Q  E E Q    E E E E +E  E Q    Q.   E +Q   Q
|------------------|--------------|------------------|----------------|
|------------------|--------------|------------------|-3----2-(2)--3--|
|------------------|-0--0--0-0-0--|-0-0-0-0-(0)-0-0--|----------------|
|-3-3-3-3-(3)-3-3--|--------------|------------------|----------------|


  Q.   E E E E E   Q  Q  E E E E   E E E E E E E E   Q  Q  E E E E
|----------------|----2----------|-----------------|----2----------|
|-5--------------|---------------|-----------------|---------------|
|----------------|-0-----0-0-0-0-|-0-0-0-0-0-0-0-0-|-0-----0-0-0-0-|
|------3-3-3-3-3-|---------------|-----------------|---------------|


  E E E E E E E E   Q  Q  E E E E   E E E E E E E E   Q   Q   +E   E  +Q
|-----------------|----2----------|-------------0-1-|-2--14--(14)-12-(12)--|
|-----------------|---------------|---------0-2-----|----------------------|
|-0-0-0-0-0-0-0-0-|-0-----0-0-0-0-|-0-0-0-0---------|----------------------|
|-----------------|---------------|-----------------|----------------------|


   Q  E E E E Q    Q  Q  E E Q    E E E E +E  E Q    Q  Q  E E Q
|-10-------------|--------------|------------------|--------------|
|----------------|--------------|------------------|--------------|
|-------8-7-5----|--------------|------------------|-0--0--0-0-0--|
|-------------7--|-5--5--5-5-5--|-5-5-5-5-(5)-5-3--|--------------|


  E E E E +E  E Q    Q  Q  E E Q    E E E E +E  E Q    Q  Q  E E Q
|------------------|--------------|------------------|--------------|
|------------------|--------------|------------------|--------------|
|-0-0-0-0-(0)-0----|--------------|------------------|-0--0--0-0-0--|
|---------------3--|-1--1--1-1-1--|-3-3-3-3-(3)-3-3--|--------------|


  E E E E +E  E Q    Q  Q  E E Q    E E E E +E  E Q    Q  Q  E E Q
|------------------|--------------|------------------|--------------|
|------------------|--------------|------------------|--------------|
|-0-0-0-0-(0)-0----|-0--0--0-0-0--|-0-0-0-0-(0)-0----|-0--0--0-0-0--|
|---------------3--|--------------|---------------3--|--------------|


  E E E E +E  E Q    Q  E E +H       Q  E E +H       E E E E E E E E
|------------------|---------------|---------------|-----------------|
|------------------|---------------|---------------|-----------------|
|-0-0-0-0-(0)-0----|------3-(3)----|------5-(5)----|-----------------|
|---------------3--|-1--1----------|-3--3----------|-5-5-5-5-5-5-5-5-|


  E E E E E E Q    Q  E E +H       Q  E E +Q   Q    Q  Q  E E Q
|----------------|---------------|----------------|--------------|
|-------------5--|---------------|----------------|--------------|
|----------------|------3-(3)----|------5-(5)-----|-0--0--0-0-0--|
|-5-5-5-5-5-5----|-1--1----------|-3--3--------3--|--------------|


  E E E E +E  E Q    Q  Q  Q  Q    Q  Q  Q  Q    Q.   E +Q   Q
|------------------|----------0--|----------2--|------4-(4)--2--|
|------------------|-------2-----|-0--0--4-----|-2--------------|
|---0-0-0-(0)-0-2--|-3--3--------|-------------|----------------|
|-3----------------|-------------|-------------|----------------|


  Q  E E E E E E   Q  Q  E E Q    Q  E E +E  E Q    Q  Q  E E Q
|-1--------------|--------------|-----------------|--------------|
|----2-----------|--------------|-----------------|--------------|
|------2---------|--------------|-----------------|-0--0--0-0-0--|
|--------0-0-0-0-|-1--1--1-1-1--|-3--3-3-(3)-3-3--|--------------|


  E E E E +E  E Q    Q  Q  E E Q    E E E E +E  E Q    Q  H    Q
|------------------|--------------|------------------|------------|
|------------------|--------------|------------------|------------|
|-0-0-0-0-(0)-0----|--------------|------------------|-0--0----5--|
|---------------3--|-1--1--1-1-1--|-3-3-3-3-(3)-3-3--|------------|


  E E +Q   Q  Q    Q  E E E E E E   Q.   E +Q   Q    Q  E E E E E E
|-4-5-(5)--4-----|----------------|----------------|----------------|
|-------------5--|-3--------------|-------------5--|----------------|
|----------------|----------------|------5-(5)-----|----------------|
|----------------|----1-1-1-1-1-1-|-3--------------|-5--5-5-5-5-5-5-|


  Q.   E +Q   Q    Q.   E +Q    Q     Q.    E  +Q    Q    Q   Q  E E E E
|-5----4-(4)-----|------5-(5)--10--|--------------------|----------------|
|-------------5--|-3---------------|----------------14--|----------------|
|----------------|-----------------|-------14-(14)------|-0--12--0-0-0-0-|
|----------------|-----------------|-12-----------------|----------------|


  E E E E E E E E   Q   Q  E E E E   E E E E E E E E   Q   Q  E E E E
|-----------------|----------------|-----------------|----------------|
|-----------------|----------------|-----------------|----------------|
|-0-0-0-0-0-0-0-0-|-0--12--0-0-0-0-|-0-0-0-0-0-0-0-0-|-0--12--0-0-0-0-|
|-----------------|----------------|-----------------|----------------|


  E E E E  E  E  E  E    Q   Q   +E   E  E  E    H    S S E Q    Q  Q  E E Q
|---------------------|-----14--(14)-12-12-10-|-10-------------|---------------|
|---------------------|-----------------------|----------------|---------------|
|-0-0-0-0-------10-11-|-12--------------------|----------------|-0--0--0-0-0---|
|---------10-12-------|-----------------------|-------0--------|---------------|


  E E E E +E  E Q    Q  Q  E E Q    E E E E +E  E Q    Q  Q  E E Q
|------------------|--------------|------------------|--------------|
|------------------|--------------|------------------|--------------|
|-0-0-0-0-(0)-0----|-0--0--0-0-0--|-0-0-0-0-(0)-0----|--------------|
|---------------3--|--------------|---------------3--|-1--1--1-1-1--|


  E E E E +E  E Q    Q  Q  E E Q    E E E E +E  E Q    Q  Q  E E Q
|------------------|--------------|------------------|--------------|
|------------------|--------------|------------------|--------------|
|------------------|-0--0--0-0-0--|-0-0-0-0-(0)-0----|-0--0--0-0-0--|
|-3-3-3-3-(3)-3-3--|--------------|---------------3--|--------------|


  E E E E +E  E Q    Q  Q  E E Q    E E E E +E  E Q    Q  E E +H
|------------------|--------------|------------------|---------------|
|------------------|--------------|------------------|---------------|
|-0-0-0-0-(0)-0----|-0--0--0-0-0--|-0-0-0-0-(0)-0----|------3-(3)----|
|---------------3--|--------------|---------------3--|-1--1----------|


  Q  E E +H       E E E E E E E E   E E E E E E Q    Q  E E +H
|---------------|-----------------|----------------|---------------|
|---------------|-----------------|-------------5--|---------------|
|------5-(5)----|-----------------|----------------|------3-(3)----|
|-3--3----------|-5-5-5-5-5-5-5-5-|-5-5-5-5-5-5----|-1--1----------|


  Q  E E +Q   Q    Q  Q  E E Q    E E E E +E  E Q    Q  Q  Q  Q
|----------------|--------------|------------------|----------0--|
|----------------|--------------|------------------|-------2-----|
|------5-(5)-----|-0--0--0-0-0--|---0-0-0-(0)-0-2--|-3--3--------|
|-3--3--------3--|--------------|-3----------------|-------------|


  Q  Q  Q  Q    Q.   E +Q   Q    Q  E E E E E E   Q  Q  E E Q
|----------2--|------4-(4)--2--|-1--------------|--------------|
|-0--0--4-----|-2--------------|----2-----------|--------------|
|-------------|----------------|------2---------|--------------|
|-------------|----------------|--------0-0-0-0-|-1--1--1-1-1--|


  Q  E E +E  E Q    Q  Q  E E Q    E E E E +E  E Q    Q  Q  E E Q
|-----------------|--------------|------------------|--------------|
|-----------------|--------------|------------------|--------------|
|-----------------|-0--0--0-0-0--|-0-0-0-0-(0)-0----|--------------|
|-3--3-3-(3)-3-3--|--------------|---------------3--|-1--1--1-1-1--|


  E E E E +E  E Q    E E E E E E E E   E E E E E E E E   E E E E E E E E
|------------------|-----------------|-----------------|-----------------|
|------------------|-----------------|-----------------|-----------------|
|------------------|-----------------|-----------------|-----------------|
|-3-3-3-3-(3)-3-3--|-0-0-0-0-0-0-0-0-|-0-0-0-0-0-0-0-0-|-1-1-1-1-1-1-1-1-|


  E E E E E E E E   E E E E E E E E   E E E E E E E E   E E E E E E E E
|-----------------|-----------------|-----------------|-----------------|
|-----------------|-----------------|-----------------|-----------------|
|-----------------|-----------------|-----------------|-0-0-0-0-0-0-0-0-|
|-1-1-1-1-1-1-1-1-|-3-3-3-3-3-3-3-3-|-3-3-3-3-3-3-3-3-|-----------------|


  Q  Q  Q  Q    E E E E E E E E   E E E E E E E E   E E E E E E E E
|-------------|-----------------|-----------------|-----------------|
|-------------|-----------------|-----------------|-----------------|
|-0--4--5--7--|-----------------|-----------------|-----------------|
|-------------|-0-0-0-0-0-0-0-0-|-0-0-0-0-0-0-0-0-|-1-1-1-1-1-1-1-1-|


  E E E E E E E E   E E E E E E E E   E E E E E E E E   E E E E E E E E
|-----------------|-----------------|-----------------|-----------------|
|-----------------|-----------------|-----------------|-----------------|
|-----------------|-----------------|-----------------|-0-0-0-0-0-0-0-0-|
|-1-1-1-1-1-1-1-1-|-3-3-3-3-3-3-3-3-|-3-3-3-3-3-3-3-3-|-----------------|


  E E E E E E E E   Q  H    Q    Q  E E +E  E Q    Q  E E +E  E Q
|-----------------|------------|-----------------|-----------------|
|-----------------|------------|-----------------|-----------------|
|-0-0-0-0-0-0-0-0-|----3----3--|-3--3-3-(3)-3-3--|-3--3-3-(3)-3-3--|
|-----------------|------------|-----------------|-----------------|


  E E E E +E  E Q    Q  Q  E E Q    E E E E +E  E Q    Q  Q  E E Q
|------------------|--------------|------------------|--------------|
|------------------|--------------|------------------|--------------|
|-3-3--------------|--------------|------------------|--------------|
|-----0-1-(1)-1-2--|-3--3--3-3-3--|-3-3-3-3-(3)-3-3--|-3--3--3-3-3--|


  Q  Q  Q  Q    Q  Q  E E Q    E E E E +E  E Q    Q  Q  E E Q
|-------------|--------------|------------------|--------------|
|-------------|--------------|------------------|--------------|
|----2--3--5--|-3--3--3-3-3--|-3-3-3-3-(3)-3-3--|-3--3--3-3-3--|
|-3-----------|--------------|------------------|--------------|


  E E E E +E  E Q    Q  Q  E E Q    E E E E +E  E Q    Q  Q  Q  E E
|------------------|--------------|------------------|--------------|
|------------------|--------------|------------------|--------------|
|-3-3--------------|--------------|------------------|--------------|
|-----0-1-(1)-1-2--|-3--3--3-3-3--|-3-3-3-3-(3)-3-3--|-3--1--3--3-3-|


  Q  Q  Q  Q    Q  Q  H      +Q   Q  Q   Q    Q  Q  Q  Q
|-------------|------------|----------------|-------3-----|
|-------------|-------6----|-(6)------------|-------------|
|----2--3--5--|------------|----------------|-1--1-----1--|
|-3-----------|-4--4-------|------8--9--11--|-------------|


  +Q   Q  Q  Q    Q  Q  Q  Q    +Q   Q  Q  Q    H    Q  Q
|---------------|-------4-----|---------------|------5-----|
|------0--1--3--|-------------|------0--1--3--|------------|
|-(1)-----------|-2--2-----2--|-(2)-----------|-3-------3--|
|---------------|-------------|---------------|------------|


  H    Q  Q    H    Q  Q    +Q   Q  Q  Q    Q  Q  Q  Q
|------3-----|------------|---------------|-------------|
|------------|------6-----|---------------|-------8-----|
|-1-------1--|------------|------3--4--6--|-------------|
|------------|-4-------4--|-(4)-----------|-6--6-----6--|


  +Q   Q  Q  Q    Q  Q  H      W          W
|---------------|------------|----------|-7----|
|---------------|------------|----------|-7----|
|------5--6--8--|------------|----------|------|
|-(6)-----------|-3----------|----------|------|


  +H     S S E Q    W          +W           E E E E E E  E  E
|-(7)-------------|----------|------------|--------------------|
|-(7)-------------|----------|------------|--------------------|
|-----------------|-5--------|-(5)--------|-7-7-7-9-9-9-10-10--|
|--------0--------|----------|------------|--------------------|


   E  E  E  E  E  E E E   Q  Q  H      H    Q  Q    Q  E E E E E E
|-----------------------|----9-------|------------|----------------|
|-----------------------|------------|------------|----------------|
|-10-12-12-12-10-10-9-9-|-7----------|---------0--|----------------|
|-----------------------|------------|-0----------|-7--7-7-7-7-7-7-|


  E E E E E E E E   E E E E E E E E   E E E E E E Q    Q  Q  Q  Q
|-----------------|-----------------|----------------|-------5-----|
|-----------------|-----------------|----------------|-------------|
|-----------------|-----------------|-------------5--|-3-----------|
|-7-7-7-7-7-7-7-7-|-5-7-7-7-7-7-7-7-|-7-7-7-7-7-7----|-------------|


  Q  Q  Q  Q    Q  Q  Q  Q    Q  Q  Q  Q    Q  Q  E E E E
|-------------|-------------|-------------|---------------|
|----------2--|-0-----0--4--|-5--4--------|---------------|
|-3-----3-----|-------------|-------5-----|---------------|
|-------------|-------------|----------5--|----7--7-7-7-7-|


  E E E E E E E E   E E E E E E E E   E E E E E E Q    Q  Q  Q  Q
|-----------------|-----------------|----------------|-------5-----|
|-----------------|-----------------|----------------|-------------|
|-----------------|-----------------|-------------5--|-3-----------|
|-7-7-7-7-7-7-7-7-|-5-7-7-7-7-7-7-7-|-7-7-7-7-7-7----|-------------|


  Q  Q  Q  Q    Q  Q  Q  Q    Q  Q  Q  Q    Q  Q  Q  Q
|-------------|-------7-----|-------------|-------------|
|----------2--|-0-----7-----|-------------|----3-----3--|
|-3-----3-----|-------------|----5--3--2--|-1-----3-----|
|-------------|-------------|-------------|-------------|


  Q  E E +E  E Q    Q  E E +E  E E E   E E E E Q  Q    H    Q  Q
|-----------------|------------------|---------------|------------|
|-----------------|------------------|------------2--|-3-------3--|
|-----------------|-0--0-0-(0)-0-0-0-|-0-0-0-0-0-----|------3-----|
|-3--3-3-(3)-3-3--|------------------|---------------|------------|


  Q  E E +E  E Q    Q  E E +E  E Q    E E E E E E E E   Q  Q  Q  Q
|-----------------|-----------------|-----------------|-------------|
|-5---------------|-2--2-2-(2)-2-2--|-2-2-2-2-2-2-2-2-|-3--3-----3--|
|-----------------|-----------------|-----------------|-------3-----|
|----3-3-(3)-3-3--|-----------------|-----------------|-------------|


  Q  Q  Q  Q    Q  Q  E E Q    E E E E +E  E Q    Q  Q  Q  Q
|-------------|--------------|------------------|-------------|
|-5--5-----5--|--------------|------------------|-3--3-----3--|
|-------5-----|--------------|------------------|-------3-----|
|-------------|-5--5--5-5-5--|-5-5-5-5-(5)-5-5--|-------------|


  Q  Q  H      Q  E E E E E E   E E E E E E E E   Q  E E +E  E E E
|-------7----|----------------|-----------------|------------------|
|-5--5-------|-7--7-7-7-7-7-7-|-5-7-7-7-7-7-7-7-|------------------|
|------------|----------------|-----------------|------------------|
|------------|----------------|-----------------|-5--5-5-(5)-5-5-5-|


  Q  E E +E  E Q    Q  E E E E E E   Q.   E +Q   Q    Q  E E E E E E
|-----------------|----------------|----------------|----------------|
|-7---------------|----------------|-5--------------|----------------|
|--------------0--|----------------|----------------|----------------|
|----3-3-(3)-3----|-3--3-3-3-3-3-3-|------1-(1)--3--|-1--1-1-1-1-1-1-|


  Q.   E +E  E Q    Q  E E E E E E   E E Q  +E  E E E   Q  E E +E  E E E
|-----------------|----------------|------------------|------------------|
|-3---------------|----------------|-----2--(2)-------|------------------|
|-----------------|----------------|------------------|-0--0-0-(0)-0-0-0-|
|------0-(0)-0-1--|-0--0-0-0-0-0-0-|-0-0--------0-0-0-|------------------|


  Q  E E +E  E Q    Q  E E E E E E   E E E E E E E E   Q  Q  Q  Q
|-2---------------|----------------|-----------------|-------------|
|-----------------|----------------|-----------------|-------------|
|--------------0--|----------------|-3-3-2-2-0-0-----|-------3-----|
|----3-3-(3)-3----|-3--3-3-3-3-3-3-|-------------3-3-|-1--1-----1--|


  Q  Q  Q  Q    E E E E E E E E   E E E E E E E E   Q  E E +E  E E E
|-------------|-------------2-2-|-2-2-2-2-2-2-2-2-|------------------|
|-------------|-----------------|-----------------|------------------|
|-------5-----|-0-0-0-0-0-0-----|-----------------|-0--0-0-(0)-0-0-0-|
|-3--3-----3--|-----------------|-----------------|------------------|


  Q  E E +E  E Q    Q  E E E E E E   Q.   E +Q   Q    Q  E E E E E E
|-2---------------|----------------|----------------|----------------|
|-----------------|----------------|-5--------------|----------------|
|--------------0--|----------------|----------------|----------------|
|----3-3-(3)-3----|-3--3-3-3-3-3-3-|------1-(1)--3--|-1--1-1-1-1-1-1-|


  Q.   E +E  E Q    Q  E E E E E E   E E Q  +E  E E E   Q  E E +E  E E E
|-----------------|----------------|------------------|------------------|
|-3---------------|----------------|-----2--(2)-------|------------------|
|-----------------|----------------|------------------|-0--0-0-(0)-0-0-0-|
|------0-(0)-0-1--|-0--0-0-0-0-0-0-|-0-0--------0-0-0-|------------------|


  Q  E E +E  E Q    Q  E E E E E E   E E E E E E E E   Q  Q  Q  Q
|-2---------------|----------------|-----------------|-------------|
|-----------------|----------------|-----------------|-------------|
|--------------0--|----------------|-3-3-2-2-0-0-----|-------3-----|
|----3-3-(3)-3----|-3--3-3-3-3-3-3-|-------------3-3-|-1--1-----1--|


  Q.   E +Q   Q    W          Q  E E +Q   Q    Q  Q  +H
|----------------|----------|-4----4-(4)-----|--------------|
|-------------5--|----------|-------------5--|-3------------|
|------5-(5)-----|----------|----------------|--------------|
|-3--------------|-5--------|----------------|----1--(1)----|


  Q  E E +E  E Q    W          Q.   E +Q   Q    Q.   E E  E  +Q
|-----------------|----------|-5----4-(4)-----|--------5-10-(10)--|
|--------------5--|----------|-------------5--|-3----3------------|
|------5-(5)-5----|----------|----------------|-------------------|
|-3--3------------|-5--------|----------------|-------------------|


  H    H      H    H      W          W
|-----------|-----------|----------|------|
|-----------|-----------|----------|------|
|-----------|-0---------|----------|------|
|-0----3----|-----------|----------|------|


  W          W          W          W
|----------|----------|----------|------|
|----------|----------|----------|------|
|----------|----------|----------|------|
|----------|----------|----------|------|


  H    Q  Q    Q  Q  E E Q    Q  Q  E E Q    Q  Q  E E Q
|------------|--------------|--------------|--------------|
|------------|--------------|--------------|--------------|
|------0-----|--------------|--------------|-0--0--0-0-0--|
|---------3--|-1--1--1-1-1--|-3--3--3-3-3--|--------------|


  E E E E Q  Q    H    Q  Q    H    Q  Q    Q.   E +Q   Q
|---------------|---------0--|---------2--|------4-(4)--2--|
|---------------|------2-----|-0----4-----|-2--------------|
|-0-0-0-0-0--0--|-3----------|------------|----------------|
|---------------|------------|------------|----------------|


  Q.   E Q  Q    Q  Q  E E Q    Q  E E +E  E Q    Q  E E E E E E
|-1------------|--------------|-----------------|----------------|
|------2-------|--------------|-----------------|----------------|
|--------2-----|--------------|-----------------|-0--0-0-0-0-0-0-|
|-----------0--|-1--1--1-1-1--|-3--3-3-(3)-3-3--|----------------|


  E E E E Q  Q    Q  E E E E Q    Q  E E S S E Q    E E E E E E E E
|---------------|---------------|-----------------|------------------|
|---------------|---------------|-----------------|------------------|
|-0-0-0-0-0-----|---------------|-----------------|-0-0-0-0-0-0-0-0--|
|------------3--|-1--1-1-1-1-1--|-3--3-3-0--------|------------------|


  E E E E E E E E   Q  Q  E E E E   E E E E E E E E   Q  Q  E E E E
|-----------------|----2----------|-----------------|----2----------|
|-----------------|---------------|-----------------|---------------|
|-0-0-0-0-0-0-0-0-|-0-----0-0-0-0-|-0-0-0-0-0-0-0-0-|-0-----0-0-0-0-|
|-----------------|---------------|-----------------|---------------|


  E E E E E E E E   Q   Q   E  E  +Q      Q.   E H      Q  E E +E  E E E
|-------------0-1-|-2--14--12-12-(12)--|-10-----------|------------------|
|---------0-2-----|--------------------|--------------|------------------|
|-0-0-0-0---------|--------------------|-------8-7----|------------------|
|-----------------|--------------------|--------------|-5--5-5-(5)-5-5-5-|


  Q  E E +E  E Q    Q  E E E E E E   Q.   E +Q   Q    Q  E E E E E E
|-----------------|----------------|----------------|----------------|
|-7---------------|----------------|-5--------------|----------------|
|--------------0--|----------------|----------------|----------------|
|----3-3-(3)-3----|-3--3-3-3-3-3-3-|------1-(1)--3--|-1--1-1-1-1-1-1-|


  Q.   E +E  E Q    Q  E E E E E E   E E Q  +E  E E E   Q  E E +E  E E E
|-----------------|----------------|------------------|------------------|
|-3---------------|----------------|-----2--(2)-------|------------------|
|-----------------|----------------|------------------|-0--0-0-(0)-0-0-0-|
|------0-(0)-0-1--|-0--0-0-0-0-0-0-|-0-0--------0-0-0-|------------------|


  Q  E E +E  E Q    Q  E E E E E E   E E E E E E E E   Q  Q  Q  Q
|-2---------------|----------------|-----------------|-------------|
|-----------------|----------------|-----------------|-------------|
|--------------0--|----------------|-3-3-2-2-0-0-----|-------3-----|
|----3-3-(3)-3----|-3--3-3-3-3-3-3-|-------------3-3-|-1--1-----1--|


  Q  Q  Q  Q    E E E E E E E E   E E E E E E E E    Q  E E +E  E E E
|-------------|-------------2-2-|-2-2-2-2-2-2-2-2-|-------------------|
|-------------|-----------------|-----------------|-------------------|
|-------5-----|-0-0-0-0-0-0-----|-----------------|--0--0-0-(0)-0-0-0-|
|-3--3-----3--|-----------------|-----------------|-------------------|
|
| Gtr II
| W             W                 W                  W
|-------------|-----------------|-----------------|-12----------------|
|-------------|-----------------|-----------------|-------------------|
|-------------|-----------------|-----------------|-------------------|
|-------------|-----------------|-----------------|-------------------|
|-------------|-----------------|-----------------|-------------------|
|-------------|-----------------|-----------------|-------------------|


    Q   E E +E  E Q     Q  E E E E E E     Q.   E +Q   Q    Q  E E E E E E
|---2----------------|-----------------|------------------|----------------|
|--------------------|-----------------|---5--------------|----------------|
|-----------------0--|-----------------|------------------|----------------|
|-------3-3-(3)-3----|--3--3-3-3-3-3-3-|--------1-(1)--3--|-1--1-1-1-1-1-1-|
|
|  +W                   W                 +W                W
|-(12)---------------|-10--------------|-(10)-------------|-8--------------|
|--------------------|-----------------|------------------|----------------|
|--------------------|-----------------|------------------|----------------|
|--------------------|-----------------|------------------|----------------|
|--------------------|-----------------|------------------|----------------|
|--------------------|-----------------|------------------|----------------|


   Q.   E +E  E Q    Q  E E E E E E    E  E Q  +E  E E E    Q  E E +E  E E E
|------------------|----------------|--------------------|-------------------|
|--3---------------|----------------|-------2--(2)-------|-------------------|
|------------------|----------------|--------------------|--0--0-0-(0)-0-0-0-|
|-------0-(0)-0-1--|-0--0-0-0-0-0-0-|--0--0--------0-0-0-|-------------------|
|
| +W                 W                +W                    W
|-(8)--------------|-7--------------|-(7)----------------|-12----------------|
|------------------|----------------|--------------------|-------------------|
|------------------|----------------|--------------------|-------------------|
|------------------|----------------|--------------------|-------------------|
|------------------|----------------|--------------------|-------------------|
|------------------|----------------|--------------------|-------------------|


    Q   E E +E  E Q     Q  E E E E E E     E  E E E E E E E   Q  Q  Q  Q
|---2----------------|-----------------|--------------------|-------------|
|--------------------|-----------------|--------------------|-------------|
|-----------------0--|-----------------|---3--3-2-2-0-0-----|-------3-----|
|-------3-3-(3)-3----|--3--3-3-3-3-3-3-|----------------3-3-|-1--1-----1--|
|
|  +W                   W                 +W                  W
|-(12)---------------|-10--------------|-(10)---------------|-8-----------|
|--------------------|-----------------|--------------------|-------------|
|--------------------|-----------------|--------------------|-------------|
|--------------------|-----------------|--------------------|-------------|
|--------------------|-----------------|--------------------|-------------|
|--------------------|-----------------|--------------------|-------------|


   Q.   E +Q   Q     Q  E E E E E E     Q    H     Q     Q  E E E E E E
|-----------------|-----------------|--------4-----5--|-----------------|
|--------------5--|-----------------|-----------------|-----------------|
|-------5-(5)-----|-----------------|-----------------|-----------------|
|--3--------------|--5--5-5-5-5-5-5-|---5-------------|--3--3-3-3-3-3-3-|
|
|  W                 W                 +Q    H     Q     W
|-10--------------|-----------------|-----------------|-----------------|
|-----------------|-10--------------|-(10)--12----13--|-12--------------|
|-----------------|-----------------|-----------------|-----------------|
|-----------------|-----------------|-----------------|-----------------|
|-----------------|-----------------|-----------------|-----------------|
|-----------------|-----------------|-----------------|-----------------|


    Q    H     Q     Q  E E E E E E     Q    E E Q   Q     Q  E E E E Q
|--------5-----7--|-----------------|-------------------|----------------|
|-----------------|-----------------|-------------------|----------------|
|-----------------|-----------------|-------------------|----------------|
|---3-------------|--1--1-1-1-1-1-1-|---1----1-1-3---1--|--0--0-0-0-0-4--|
|
|  +Q    H     Q     W                 +Q    H       Q     W
|-----------------|-----------------|-------12------13--|-12-------------|
|-(12)--13----15--|-13--------------|-(13)--------------|----------------|
|-----------------|-----------------|-------------------|----------------|
|-----------------|-----------------|-------------------|----------------|
|-----------------|-----------------|-------------------|----------------|
|-----------------|-----------------|-------------------|----------------|


    Q.     E +Q    Q     Q  E E E E Q     Q   H     Q     Q  E E E E Q
|---------------------|----------------|---------------|----------------|
|---------------------|----------------|--7---9----10--|----------------|
|---------------------|-------------7--|---------------|-------------2--|
|---5------6-(6)---7--|--5--5-5-5-5----|---------------|--3--3-3-3-3----|
|
|  +Q    H         Q     W                Q   H     Q     W
|-(12)----------------|----------------|---------------|----------------|
|-------12--------13--|----------------|-----12----13--|-12-------------|
|---------------------|-14-------------|-14------------|----------------|
|---------------------|----------------|---------------|----------------|
|---------------------|----------------|---------------|----------------|
|---------------------|----------------|---------------|----------------|


   H      Q   Q     Q  E E E E E E    Q  E E Q  Q     Q  E E E E E E
|----------------|-----------------|---------------|-----------------|
|----------------|-----------------|---------------|-----------------|
|--3------3---5--|-----------------|---------------|-----------------|
|----------------|--1--1-1-1-1-1-1-|--3--3-3-3--4--|--5--5-5-5-5-5-5-|
|
|  Q   H      Q     W                 W               W
|----------------|-----------------|---------------|-----------------|
|-12--13-----15--|-----------------|---------------|-----------------|
|----------------|-----------------|---------------|-17--------------|
|----------------|-15--------------|-17------------|-----------------|
|----------------|-----------------|---------------|-----------------|
|----------------|-----------------|---------------|-----------------|


   Q.    E  +Q    Q     Q  E E E E E E    Q  Q  Q  Q     Q  E E E E E E
|--5-----4--(4)------|-----------------|--------------|-----------------|
|-----------------5--|-----------------|-----5-----5--|-----------------|
|--------------------|-----------------|--------------|-----------------|
|--------------------|--1--1-1-1-1-1-1-|--3-----3-----|--5--5-5-5-5-5-5-|
|
|  Q.    E  +Q    Q     W                 W              W
|--------------------|-----------------|--------------|-----------------|
|----------------15--|-13--------------|-12-----------|-13--------------|
|-17----16-(16)------|-----------------|--------------|-----------------|
|--------------------|-----------------|--------------|-----------------|
|--------------------|-----------------|--------------|-----------------|
|--------------------|-----------------|--------------|-----------------|


   Q.    E  +Q    Q    W           Q.   E +Q   Q     Q  E E E E E E
|--5-----4--(4)------|----------|-------4-(4)--9--|-----------------|
|-----------------5--|-3--------|--2--------------|-----------------|
|--------------------|----------|-----------------|--0--0-0-0-0-0-0-|
|--------------------|----------|-----------------|-----------------|
|
|  Q.    E  +Q    Q    W           W                 W
|----------------10--|-8--------|-10--------------|-12--------------|
|-13----12-(12)------|----------|-----------------|-----------------|
|--------------------|----------|-----------------|-----------------|
|--------------------|----------|-----------------|-----------------|
|--------------------|----------|-----------------|-----------------|
|--------------------|----------|-----------------|-----------------|


   Q.    E  +Q    Q    W          Q.   E +Q   Q    Q  E E E E E E
|--------------------|----------|----------------|----------------|
|-10-----9--(9)---7--|----------|------7-(7)--5--|----------------|
|--------------------|-8--------|-7--------------|----------------|
|--------------------|----------|----------------|-5--5-5-5-5-5-5-|
|
|  Q.    E  +Q    Q    W          W                W
|----------------10--|-8--------|-7--------------|-8--------------|
|-13----12-(12)------|----------|----------------|----------------|
|--------------------|----------|----------------|----------------|
|--------------------|----------|----------------|----------------|
|--------------------|----------|----------------|----------------|
|--------------------|----------|----------------|----------------|


  Q.   E +Q    Q    Q.   E +E   E  +Q
|-5----4-(4)------|------5-(5)-10-(10)--|
|--------------5--|-3-------------------|
|-----------------|---------------------|
|-----------------|---------------------|
|
| Q.   E +Q    Q    W
|-8----7-(7)--10--|-8-------------------|
|-----------------|---------------------|
|-----------------|---------------------|
|-----------------|---------------------|
|-----------------|---------------------|
|-----------------|---------------------|


   Q.    E  +E   E  +Q     E E E E E E E E
|------------------------|-----------------|
|---------------14-(14)--|-----------------|
|-------14-(14)----------|-0-0-0-2-2-2-3-3-|
|-12---------------------|-----------------|
|
|  W                       W
|-10---------------------|-----------------|
|------------------------|-----------------|
|------------------------|-----------------|
|------------------------|-----------------|
|------------------------|-----------------|
|------------------------|-----------------|


  E E E E E E E E   E E E E E E E E   E E E E E E E E   E E E E E E  E  E
|-----------------|-----------------|-----------------|-------------------|
|-----------------|-----------------|-----------------|-------------------|
|-3-5-5-5-3-3-2-2-|-0-0-0-2-2-2-3-3-|-3-5-5-5-3-3-5-5-|-7-7-7-8-8-8-10-10-|
|-----------------|-----------------|-----------------|-------------------|


   E  E  E  E  E  E E E    W           +W             W
|-----------------------|-----------|-------------|---------|
|-----------------------|-----------|-------------|---------|
|-10-12-12-12-10-10-8-8-|--7--------|--(7)--------|---------|
|-----------------------|-----------|-------------|---------|
|
| Gtr II
|  W                       W           +W            +W
|-----------------------|-----------|-------------|---------|
|-----------------------|-----------|-------------|---------|
|-----------------------|-----------|-------------|---------|
|-----------------------|--9--------|--(9)--------|--(9)----|
|-----------------------|-----------|-------------|---------|
|-----------------------|-----------|-------------|---------|
|
| Gtr III
|  W                       W           +W            +W
|-----------------------|-----------|-------------|---------|
|-----------------------|-----------|-------------|---------|
|-----------------------|-----------|-------------|---------|
|-----------------------|-----------|-------------|---------|
|-----------------------|-----------|-------------|---------|
|-----------------------|-12--------|-(12)--------|-(12)----|


  Gtr II
   +W
|---------*|
|---------*|
|---------*|
|--(9)----*|
|---------*|
|---------*|
|
| Gtr III
|  +W
|---------*|
|---------*|
|---------*|
|---------*|
|---------*|
|-(12)----*|



Duration Legend
---------------
W - whole; H - half; Q - quarter; E - 8th; S - 16th; T - 32nd; X - 64th; a - acciaccatura
+ - note tied to previous; . - note dotted; .. - note double dotted
Uncapitalized letters represent notes that are staccato (1/2 duration)
Irregular groupings are notated above the duration line
Duration letters will always appear directly above the note/fret number it represents the
duration for.  Duration letters with no fret number below them represent rests.  Multi-
bar rests are notated in the form Wxn, where n is the number of bars to rest for.  Low
melody durations appear below the staff

Tablature Legend
----------------
 h   - hammer-on
 p   - pull-off
 b   - bend
 pb  - pre-bend
 r   - bend release (if no number after the r, then release immediately)
 /\  - slide into or out of (from/to "nowhere")
 s   - legato slide
 S   - shift slide
 - natural harmonic
[n]  - artificial harmonic
n(n) - tapped harmonic
 ~   - vibrato
 tr  - trill
 T   - tap
 TP  - trem. picking
 PM  - palm muting
\n/  - tremolo bar dip; n = amount to dip
 \n  - tremolo bar down
 n/  - tremolo bar up
/n\  - tremolo bar inverted dip
 =   - hold bend; also acts as connecting device for hammers/pulls
 <> - volume swell (louder/softer)
 x   - on rhythm slash represents muted slash
 o   - on rhythm slash represents single note slash

Misc Legend
-----------
 |  - bar
||  - double bar
||o - repeat start
o|| - repeat end
*|  - double bar (ending)
 :  - bar (freetime)
 $  - Segno
 &  - Coda
Tempo markers -  = BPM(8/16=s8/s16), where s8 = swing 8ths, s16 = swing 16ths





Comments


Popular X Japan tabs & chords
Art Of Life 2 Bass Tabs
Blue Blood Bass Tabs
Crucify My Love Chords
Endless Rain Tabs
Endless Rain 3 Tabs
Ill Kill You 1 Tabs
Kurenai Tabs
Last Song Tabs
Longing Tabs
Unfinished Ukulele


Song lyrics



↑ Back to top | Tablatures and chords are parodies/interpretations of the original songs. You may use it for private study, scholarship, research or language learning purposes only
© 2014 AZChords.com Contact us | Privacy policy | DMCA | Add/correct tabs | Request tabs | Top 50 tabs