>
 >
20th Century Boy

20th Century Boy Guitar Tabs

X Japan - 20th Century Boy chords, tabs, tablatures, lyrics

Guitar lessons | Add/correct | Request | Top 50 tabs Artists:  A B C D E F G H I J K L M N O P Q R S T U V W X Y Z 0-9

20th Century Boy Guitar Tabs – X Japan

CD, Sheet music, Poster

Do you like 20th Century Boy? Share with your friends now
Bass TabsTabs

20TH CENTURY BOY
As recorded by X Japan


        

Words and Music by Marc Bolan

Gtr I (Eb Ab Db Gb Bb Eb) - 'Guitar 1'
Gtr II (Eb Ab Db Gb Bb Eb) - 'Guitar 2'
Gtr III (E A D G B E) - 'Vocals'

  Q=165
 4/4
  Gtrs I, II
  H    Q  E S S   Q  Q   H         H         E E E E   Q   Q   H
|---------------|---------------|--------------------|-----------------|
|-----------3-3-|-3-------------|--------------------|-3---------------|
|-----------2-2-|-2-------------|--------------------|-2---------------|
|-----------0-0-|-0-------------|--------------------|-0---------------|
|---------------|---------------|--------------0-3-0-|-----------------|
|---------------|---------------|--------------------|-----------------|
|
| Gtr III
| W               Q  E E Q  E E   +E  E +Q   H         E E E E Q  E  E
|---------------|----5-5-5--4-4-|-(4)-5-(5)----------|---5-5-4-5--5--9-|
|---------------|----7-7-7--5-5-|-(5)-7-(7)----------|---7-7-5-7--7-10-|
|---------------|----8-8-8--6-6-|-(6)-8-(8)----------|---8-8-6-8--8-11-|
|---------------|---------------|--------------------|-----------------|
|---------------|---------------|--------------------|-----------------|
|---------------|---------------|--------------------|-----------------|


  Gtr I
    H           Q  S S E   W
|------------------0-----|------------------|
|------------------0-----|------------------|
|------------------0-----|------------------|
|------------------0-----|-2----------------|
|------------------0-----|-2----------------|
|------------------0-----|-0----------------|
|
| Gtr II
|   H           Q  S S E   Q  E E E E +E  E
|------------------0-----|------------------|
|------------------0-----|------------------|
|------------------0-----|------------------|
|------------------0-----|------------------|
|------------------0-----|------------------|
|------------------0-----|-0--0-0-3-0-(0)-3-|
|
| Gtr III
|  +E   E  +Q   H          W
|--(9)-11-(11)-----------|------------------|
|-(10)-------------------|------------------|
|-(11)-11-(11)-----------|------------------|
|------13-(13)-----------|------------------|
|------------------------|------------------|
|------------------------|------------------|


  +W              W
|---------------|-------------------|
|---------------|-5-----------------|
|---------------|-4-----------------|
|-(2)-----------|-------------------|
|-(2)-----------|-------------------|
|-(0)-----------|-------------------|
|
| +E  E Q  H      Q  E E E E +E  E
|---------------|-------------------|
|---------------|-------------------|
|---------------|-------------------|
|---------------|-------------------|
|---------------|-------------------|
|-(3)-0-3--0----|-0--0-0-3-0-(0)-3--|
|
|  W              W
|---------------|-------------------|
|---------------|-------------------|
|---------------|-------------------|
|---------------|-------------------|
|---------------|-------------------|
|---------------|-------------------|


  +H       E. S +S  E.   Q  E E E E +E  E   +E  E Q  H      Q  E E E E +E  E
|----------3--3-(3)-3--|------------------|---------------|------------------|
|-(5)------3--3-(3)-3--|------------------|---------------|------------------|
|-(4)------------------|------------------|---------------|------------------|
|----------------------|------------------|---------------|------------------|
|----------------------|------------------|---------------|------------------|
|----------------------|-0--0-0-3-0-(0)-3-|-(3)-0-3--0----|-0--0-0-3-0-(0)-3-|
|
| +E  E Q  E. S +S  E.   Q  E E E E +E  E   +E  E Q  H      Q  E E E E +E  E
|----------3--3-(3)-3--|------------------|---------------|------------------|
|----------3--3-(3)-3--|------------------|---------------|------------------|
|----------------------|------------------|---------------|------------------|
|----------------------|------------------|---------------|------------------|
|----------------------|------------------|---------------|------------------|
|-(3)-0-3--------------|-0--0-0-3-0-(0)-3-|-(3)-0-3--0----|-0--0-0-3-0-(0)-3-|


  Gtrs I, II
  +E  E Q  E E E  E    +E   E  E E  E  E E  E
|-------------------|-------------------------|
|-------------------|-------------------------|
|-------------------|-------------------------|
|-------------------|----------4---------4----|
|-----------------7-|--(7)--7--0-7--7--7-0--7-|
|-(3)-0-3--0-3-4--5-|--(5)--5----5--5--5----5-|
|
| Gtr III
|  H       Q   E  E    +E   E  Q    Q.      E
|-------------------|-------------------------|
|----------------13-|-(13)-14-12---10------12-|
|-------------------|-------------------------|
|-------------------|-------------------------|
|-------------------|-------------------------|
|-------------------|-------------------------|


    E   E  E E  E  E E  E    +E   E  E  E   E   E   E  E
|-------------------------|------------------------------|
|-------------------------|------------------------------|
|-------------------------|------------------------------|
|----------4---------4----|----------4--------------4--5-|
|---7---7--0-7--7--7-0--7-|--(7)--7--0--7---7---7--------|
|---5---5----5--5--5----5-|--(5)--5-----5---5---5--------|
|
|  +E   E  Q    Q.      E    +E   E  E  E  +E   E  +Q
|-------------------------|------------------------------|
|-(12)-14-12---10------12-|-(12)-14-12-10-(10)-10-(10)---|
|-------------------------|------------------------------|
|-------------------------|------------------------------|
|-------------------------|------------------------------|
|-------------------------|------------------------------|


  +E   E  Q   Q      Q         Q    E  E   E  E +E  E
|--------------------------|--------------------------|
|--------------------------|--------------------------|
|--------------------------|--------------------------|
|-(5)--5--4---2------------|--------------------------|
|--------------------------|--------------------------|
|--------------------3-----|---0----0--0---3--0-(0)-3-|
|
|  E   E  Q   E  E  +E   E    +Q    E  E  +H
|--------------------------|-------12-12-(12)---------|
|-10-----10--10-10-(10)-12-|-(12)---------------------|
|-----11-------------------|--------------------------|
|--------------------------|--------------------------|
|--------------------------|--------------------------|
|--------------------------|--------------------------|


  +E  E Q  H      Q  E E E E +E  E
|---------------|------------------|
|---------------|------------------|
|---------------|------------------|
|---------------|------------------|
|---------------|------------------|
|-(3)-0-3--0----|-0--0-0-3-0-(0)-3-|
|
|  W              W
|---------------|------------------|
|---------------|------------------|
|---------------|------------------|
|---------------|------------------|
|---------------|------------------|
|---------------|------------------|


  +E  E Q  E E E  E    +E   E  E  E  E  E E E
|-------------------|-------------------------|
|-------------------|-------------------------|
|-------------------|-------------------------|
|-------------------|----------4----------4---|
|-----------------7-|--(7)--7--0--7--7--7-0-7-|
|-(3)-0-3--0-3-4--5-|--(5)--5-----5--5--5---5-|
|
|  H       Q   E  E    +E   E  E  E  Q.     E
|-------------------|-----------------------9-|
|----------------14-|-(14)-14-12-10-10--------|
|-------------------|-------------------------|
|-------------------|-------------------------|
|-------------------|-------------------------|
|-------------------|-------------------------|


   E  E E E E  E E E    E  E Q    Q    E E
|--------------------|-----5------5------5-|
|--------------------|-----5------5------5-|
|--------------------|---------------------|
|-------4--------4---|---------------------|
|--7--7-0-7-7--7-0-7-|---------------------|
|--5--5---5-5--5---5-|---------------------|
|
| +E  E Q   Q.     E   +E  E E E +E  E E E
|-(9)-9-7---5------7-|-(7)-9-7-5-(5)-5-5-5-|
|--------------------|---------------------|
|--------------------|---------------------|
|--------------------|---------------------|
|--------------------|---------------------|
|--------------------|---------------------|


  +Q    Q   E E +Q       Q    E E E E +E  E   +E  E Q  H      Q  E E E E +E  E
|-(5)---5-----5-(5)---|---------------------|---------------|------------------|
|-(5)---5-----5-(5)---|---------------------|---------------|------------------|
|---------------------|---------------------|---------------|------------------|
|---------------------|---------------------|---------------|------------------|
|---------------------|---------------------|---------------|------------------|
|---------------------|--0----0-0-3-0-(0)-3-|-(3)-0-3--0----|-0--0-0-3-0-(0)-3-|
|
|  E  E E E E E +E  E   +E  E H        Q       W              W
|-----5-5---5-5-(5)-7-|-(7)-----------------|---------------|------------------|
|---------7-----------|-----7-9-------------|---------------|------------------|
|---------------------|---------------------|---------------|------------------|
|---------------------|---------------------|---------------|------------------|
|---------------------|---------------------|---------------|------------------|
|---------------------|---------------------|---------------|------------------|


  +E  E Q  E E E  E   +E  E E E E E E E   +E  E E E E E E E   E E E E E E E E
|-------------------|-------------------|-------------------|-----------------|
|-------------------|-------------------|-------------------|-----------------|
|-------------------|-------------------|-------------------|-----------------|
|-------------------|-------4---------4-|-(4)-4-5-4-4-4-5-4-|-----------------|
|-----------------7-|-(7)-7-0-7-7-7-----|-------------------|-2-2-4-2-2-2-4-2-|
|-(3)-0-3--0-3-4--5-|-(5)-5---5-5-5---7-|-(7)-7-7-7-7-7-7-7-|-0-0-0-0-0-0-0-0-|
|
|  H       Q   E  E    W                   W                  W
|-------------------|-------------------|-------------------|-----------------|
|----------------10-|-------------------|-------------------|-----------------|
|-------------------|-------------------|-------------------|-----------------|
|-------------------|-------------------|-------------------|-----------------|
|-------------------|-------------------|-------------------|-----------------|
|-------------------|-------------------|-------------------|-----------------|


  Gtr I
  E E E E E E E E   +E  E E E E E E E   +E  E E E E E E E   +W
|-----------------|-------------------|-------------------|----------------|
|-----------------|-------------------|-------------------|----------------|
|-----------------|-------------------|-------------7-8-9-|-(9)------------|
|---------------2-|-(2)-2-4---------4-|-(4)-4-5-4-4-7-8-9-|-(9)------------|
|-2-2-4-2-2-2---0-|-(0)-0-0-7-7-7-----|-------------5-6-7-|-(7)------------|
|-0-0-0-0-0-0-----|---------5-5-5---7-|-(7)-7-7-7-7-------|----------------|
|
| Gtr II
| E E E E E E E E   +E  E E E E E E E   +E  E E E E E E E   +Q   Q  Q  E E
|-----------------|-------------------|-------------------|----------------|
|-----------------|-------------------|-------------------|----------------|
|-----------------|-------------------|-------------7-8-9-|-(9)--9--9----9-|
|---------------2-|-(2)-2-4---------4-|-(4)-4-5-4-4-7-8-9-|-(9)--9--9----9-|
|-2-2-4-2-2-2---0-|-(0)-0-0-7-7-7-----|-------------5-6-7-|-(7)--7--7----7-|
|-0-0-0-0-0-0-----|---------5-5-5---7-|-(7)-7-7-7-7-------|----------------|


  +H      E  E E E   +W               +H      E  E E E   +W
|------------------|----------------|------------------|----------------|
|------------------|----------------|------------------|----------------|
|-(9)--------7-8-9-|-(9)------------|-(9)--------7-8-9-|-(9)------------|
|-(9)--------7-8-9-|-(9)------------|-(9)--------7-8-9-|-(9)------------|
|-(7)----------6-7-|-(7)------------|-(7)----------6-7-|-(7)------------|
|-----------10-----|----------------|-----------10-----|----------------|
|
|  Q   Q  E  E E E   +Q   Q  Q  E E    Q   Q  E  E E E   +Q   Q  Q  E E
|------------------|----------------|------------------|----------------|
|------------------|----------------|------------------|----------------|
|------9-----7-8-9-|-(9)--9--9----9-|------9-----7-8-9-|-(9)--9--9----9-|
|------9-----7-8-9-|-(9)--9--9----9-|------9-----7-8-9-|-(9)--9--9----9-|
|------7-------6-7-|-(7)--7--7----7-|------7-------6-7-|-(7)--7--7----7-|
|-----------10-----|----------------|-----------10-----|----------------|


  +H      E  E E E   +W
|------------------|----------------|
|------------------|----------------|
|-(9)--------7-8-9-|-(9)------------|
|-(9)--------7-8-9-|-(9)------------|
|-(7)----------6-7-|-(7)------------|
|-----------10-----|----------------|
|
|  Q   Q  E  E E E   +Q   Q  Q  E E
|------------------|----------------|
|------------------|----------------|
|------9-----7-8-9-|-(9)--9--9----9-|
|------9-----7-8-9-|-(9)--9--9----9-|
|------7-------6-7-|-(7)--7--7----7-|
|-----------10-----|----------------|


  +H       E  E   E   E    +E   E  E  E  E  E  E  E
|-----------------------|---------------------------|
|-----------------------|---------------------------|
|-(9)-------------------|---------------------------|
|-(9)-------------------|---------------------------|
|-(7)-----------------7-|--(7)--7--7--7--7--7--7--7-|
|-------------3---4---5-|--(5)--5--5--5--5--5--5--5-|
|
|  Q   Q   E  E  +E   E    +E   E  E  E  E  E  E  E
|---------12-12-(12)-12-|-(12)-12-12-12-12-12-12-12-|
|---------12-12-(12)-12-|-(12)-12-12-12-12-12-12-12-|
|------9----------------|---------------------------|
|------9----------------|---------------------------|
|------7----------------|---------------------------|
|-----------------------|---------------------------|


   +E   E  E E +E  E E E   W
|------------------------|------------|
|------------------------|------------|
|------------------------|------------|
|------------------------|------------|
|--(7)--7--7-7-(7)-7-7-2-|------------|
|--(5)--5--5-5-(5)-5-5-0-|------------|
|
|  +E   E  E E  E  E E E   Q  Q  H
|-(12)-12-------7--5---3-|-3----------|
|-(12)-12-10-8-------5---|------------|
|------------------------|------------|
|------------------------|------------|
|------------------------|------------|
|------------------------|------------|


  S S E S S E S S E E  E    +E   E  E  E E E E E
|-0-----0-----0-------12-|-(12)-12-10-10-9-9-8-8--|
|-0-----0-----0-------12-|-(12)-12----------------|
|-0-----0-----0----------|------------------------|
|------------------------|------------------------|
|------------------------|------------------------|
|------------------------|------------------------|
|
| H           E   E E  E    +E   E  E  E E E E E
|------------------------|------------------------|
|------------------------|------------------------|
|------------------------|------------------------|
|------------------------|------------------------|
|----------------------7-|--(7)--7--7--7-7-7-7-7--|
|-----------------3-4--5-|--(5)--5--5--5-5-5-5-5--|


  E  E E  E  E E  E  E   W
|-7--------------15----|------------|
|---10---12-15------17-|------------|
|---14------19---------|------------|
|----------------------|------------|
|----------------------|------------|
|----------------------|------------|
|
| E  E E  E  E E  E  E   Q  Q  H
|----------------------|------------|
|----------------------|------------|
|----------------------|------------|
|----------------------|------------|
|-7--7-7--7--7-7--7--7-|-2----------|
|-5--5-5--5--5-5--5--5-|-0----------|


  W                E  E  E  S S  E  E  S S  E
|---------------|------------------------------|
|---------------|-----------8---10-10--8---10--|
|---------------|----------12---------12-------|
|---------------|-19-19-19---------------------|
|---------------|------------------------------|
|---------------|------------------------------|
|
| H    E S S Q     E  E  E  S S  E  E  S S  E
|---------------|------------------------------|
|--------0------|--5--5--5--3----5--5--3----5--|
|--------0------|-----------7----------7-------|
|--------0------|------------------------------|
|---------------|------------------------------|
|---------------|------------------------------|


   E  S S  E  E  S S  E  S S  E
|-------------------------------|
|-10--8---10-10--8---10--8---10-|
|----12---------12------12------|
|-------------------------------|
|-------------------------------|
|-------------------------------|
|
|  E  S S  E  E  S S  E  S S  E
|-------------------------------|
|--5--3----5--5--3----5--3----5-|
|-----7----------7-------7------|
|-------------------------------|
|-------------------------------|
|-------------------------------|


   S S  E  E  S S  E  E  S S  E   E  S S E  S S E E E E
|-------------------------------|---10-----10------------|
|-10---12-12-10---12-12-10---12-|---13-----13------------|
|-14---------14---------14------|------------------------|
|-------------------------------|------------------------|
|-------------------------------|------------------------|
|-------------------------------|-----------------0-3-0--|
|
|  S S  E  E  S S  E  E  S S  E   E  S S E  S S E E E E
|-------------------------------|----5------5------------|
|--5----7--7--5----7--7--5----7-|----8------8------------|
|--9----------9----------9------|------------------------|
|-------------------------------|------------------------|
|-------------------------------|------------------------|
|-------------------------------|-----------------0-3-0--|


  +W                   +W              W                 E E E E Q  Q
|--------------------|---------------|-----------------|-5-4---5-4--5--|
|--------------------|---------------|-5---------------|-5-4---5-5--5--|
|--------------------|---------------|-4---------------|---------------|
|--------------------|---------------|-----------------|---------------|
|--------------------|---------------|-----------------|---------------|
|-(0)----------------|-(0)-----------|-----------------|---------------|
|
| +Q   E E E E +E  E   +E  E Q  H      Q  E E E E +Q     E E E E Q  Q
|--------------------|---------------|-----------------|-5-4---5-4--5--|
|--------------------|---------------|-----------------|-5-5---5-5--5--|
|--------------------|---------------|-----------------|---------------|
|--------------------|---------------|-----------------|---------------|
|--------------------|---------------|-----------------|---------------|
|-(0)--0-0-3-0-(0)-3-|-(3)-0-3--0----|-0--0-0-3-0-(0)--|---------------|


  Gtrs I, II
  Q  E E E E +E  E   +E  E Q  H      Q  E E E E +E  E   +E  E Q  E E E E
|------------------|---------------|------------------|------------------|
|------------------|---------------|------------------|------------------|
|------------------|---------------|------------------|------------------|
|------------------|---------------|------------------|------------------|
|------------------|---------------|------------------|----------------7-|
|-0--0-0-3-0-(0)-3-|-(3)-0-3--0----|-0--0-0-3-0-(0)-3-|-(3)-0-3--0-3-4-5-|


  +E  E E E E E E E   +E  E E E E E E E   E E E E E E E E   E E E E E E E E
|-------------------|-------------------|-----------------|-----------------|
|-------------------|-------------------|-----------------|-----------------|
|-------------------|-------------------|-----------------|-----------------|
|-------4---------4-|-(4)-4-5-4-4-4-5-4-|-----------------|---------------2-|
|-(7)-7-0-7-7-7-----|-------------------|-2-2-4-2-2-2-4-2-|-2-2-4-2-2-2---0-|
|-(5)-5---5-5-5---7-|-(7)-7-7-7-7-7-7-7-|-0-0-0-0-0-0-0-0-|-0-0-0-0-0-0-----|


  Gtr I
  +E  E E E E E E E   +E  E E E E E E E   +W               +H      E  E E E
|-------------------|-------------------|----------------|------------------|
|-------------------|-------------------|----------------|------------------|
|-------------------|-------------7-8-9-|-(9)------------|-(9)--------7-8-9-|
|-(2)-2-4---------4-|-(4)-4-5-4-4-7-8-9-|-(9)------------|-(9)--------7-8-9-|
|-(0)-0-0-7-7-7-----|-------------5-6-7-|-(7)------------|-(7)----------6-7-|
|---------5-5-5---7-|-(7)-7-7-7-7-------|----------------|-----------10-----|
|
| Gtr II
| +E  E E E E E E E   +E  E E E E E E E   +Q   Q  Q  E E    Q   Q  E  E E E
|-------------------|-------------------|----------------|------------------|
|-------------------|-------------------|----------------|------------------|
|-------------------|-------------7-8-9-|-(9)--9--9----9-|------9-----7-8-9-|
|-(2)-2-4---------4-|-(4)-4-5-4-4-7-8-9-|-(9)--9--9----9-|------9-----7-8-9-|
|-(0)-0-0-7-7-7-----|-------------5-6-7-|-(7)--7--7----7-|------7-------6-7-|
|---------5-5-5---7-|-(7)-7-7-7-7-------|----------------|-----------10-----|


  +W               +H      E  E E E   +W               +H      E  E E E
|----------------|------------------|----------------|------------------|
|----------------|------------------|----------------|------------------|
|-(9)------------|-(9)--------7-8-9-|-(9)------------|-(9)--------7-8-9-|
|-(9)------------|-(9)--------7-8-9-|-(9)------------|-(9)--------7-8-9-|
|-(7)------------|-(7)----------6-7-|-(7)------------|-(7)----------6-7-|
|----------------|-----------10-----|----------------|-----------10-----|
|
| +Q   Q  Q  E E    Q   Q  E  E E E   +Q   Q  Q  E E    Q   Q  E  E E E
|----------------|------------------|----------------|------------------|
|----------------|------------------|----------------|------------------|
|-(9)--9--9----9-|------9-----7-8-9-|-(9)--9--9----9-|------9-----7-8-9-|
|-(9)--9--9----9-|------9-----7-8-9-|-(9)--9--9----9-|------9-----7-8-9-|
|-(7)--7--7----7-|------7-------6-7-|-(7)--7--7----7-|------7-------6-7-|
|----------------|-----------10-----|----------------|-----------10-----|


  +W               +H      E  E  E  E    +W
|----------------|--------------------|----------------------------------|
|----------------|--------------------|----------------------------------|
|-(9)------------|-(9)--------7--8--9-|--(9)-----------------------------|
|-(9)------------|-(9)--------7--8--9-|--(9)-----------------------------|
|-(7)------------|-(7)-----------6--7-|--(7)-----------------------------|
|----------------|-----------10-------|----------------------------------|
|
| +Q   Q  Q  E E    Q   Q  E  E  E  E    +Q    E  S  S  E  S  S  E  S  S
|----------------|-----------10-11-12-|-(12)--12-------12-------12-------|
|----------------|--------------------|----------------------------------|
|-(9)--9--9----9-|------9-----7--8--9-|--(9)---9--9--9--9--9--9--9--9--9-|
|-(9)--9--9----9-|------9-------------|-----------9--9-----9--9-----9--9-|
|-(7)--7--7----7-|------7-------------|----------10-10----10-10----10-10-|
|----------------|--------------------|----------------------------------|


  +H                  E  E     E  E       +W
|--------------------------------------|---------------------------------------|
|--------------------------------------|---------------------------------------|
|-(9)-----------------9-10----11-12----|-(12)----------------------------------|
|-(9)-----------------9-10----11-12----|-(12)----------------------------------|
|-(7)-----------------7--8-----9-10----|-(10)----------------------------------|
|--------------------------------------|---------------------------------------|
|
|  E   S  S  E  S  S  E  S  S  E  S  S     E   S  S  E  S  S  E  S  S  E  S  S
|-12--------12-------12-------12-------|--12--------12-------12-------12-------|
|--------------------------------------|---------------------------------------|
|--9---9--9--9--9--9--9--9--9--9--9--9-|---9---9--9--9--9--9--9--9--9--9--9--9-|
|------9--9-----9--9-----9--9-----9--9-|-------9--9-----9--9-----9--9-----9--9-|
|-----10-10----10-10----10-10----10-10-|------10-10----10-10----10-10----10-10-|
|--------------------------------------|---------------------------------------|


   +H                  E  E     E  E
|----------------------------------------|
|----------------------------------------|
|-(12)----------------12-12----13-14-----|
|-(12)----------------12-12----13-14-----|
|-(10)----------------10-10----11-12-----|
|----------------------------------------|
|
|   E   S  S  E  S  S  E  S  S  E  S  S
|--12--------12-------12-------12--------|
|----------------------------------------|
|---9---9--9--9--9--9--9--9--9--9--9--9--|
|-------9--9-----9--9-----9--9-----9--9--|
|------10-10----10-10----10-10----10-10--|
|----------------------------------------|


   +W
|---------------------------------------|
|---------------------------------------|
|-(14)----------------------------------|
|-(14)----------------------------------|
|-(12)----------------------------------|
|---------------------------------------|
|
|   E   S  S  E  S  S  E  S  S  E  S  S
|--12--------12-------12-------12-------|
|---------------------------------------|
|---9---9--9--9--9--9--9--9--9--9--9--9-|
|-------9--9-----9--9-----9--9-----9--9-|
|------10-10----10-10----10-10----10-10-|
|---------------------------------------|


   +H                  E  E     E  E      +W
|---------------------------------------|---------------------------------------|
|---------------------------------------|---------------------------------------|
|-(14)-----------------2--3-----4--5----|-(5)-----------------------------------|
|-(14)-----------------2--3-----4--5----|-(5)-----------------------------------|
|-(12)-----------------0--1-----2--3----|-(3)-----------------------------------|
|---------------------------------------|---------------------------------------|
|
|   E   S  S  E  S  S  E  S  S  E  S  S    E   S  S  E  S  S  E  S  S  E  S  S
|--12--------12-------12-------12-------|-12--------12-------12-------12--------|
|---------------------------------------|---------------------------------------|
|---9---9--9--9--9--9--9--9--9--9--9--9-|--9---9--9--9--9--9--9--9--9--9--9--9--|
|-------9--9-----9--9-----9--9-----9--9-|------9--9-----9--9-----9--9-----9--9--|
|------10-10----10-10----10-10----10-10-|-----10-10----10-10----10-10----10-10--|
|---------------------------------------|---------------------------------------|


  +H                  E  E  E  E   +W
|--------------------------------|---------------------------------|
|--------------------------------|---------------------------------|
|-(5)-----------------5--7--8--9-|-(9)-----------------------------|
|-(5)-----------------5--7--8--9-|-(9)-----------------------------|
|-(3)-----------------4--5--6--7-|-(7)-----------------------------|
|--------------------------------|---------------------------------|
|
|  E   S  S  E  S  S  E  E  E  E    Q    E  S  S  E  S  S  E  S  S
|-12--------12-------------------|---------------------------------|
|--------------------14-15-16-17-|-17---17-------17-------17-------|
|--9---9--9--9--9--9-------------|---------------------------------|
|------9--9-----9--9-11-12-13-14-|-14---14-14-14-14-14-14-14-14-14-|
|-----10-10----10-10-------------|---------14-14----14-14----14-14-|
|--------------------------------|---------15-15----15-15----15-15-|


  +H                  E  E     E  E
|--------------------------------------|
|--------------------------------------|
|-(9)-----------------9-10----11-12----|
|-(9)-----------------9-10----11-12----|
|-(7)-----------------7--8-----9-10----|
|--------------------------------------|
|
|  E   S  S  E  S  S  E  S  S  E  S  S
|--------------------------------------|
|-17--------17-------17-------17-------|
|--------------------------------------|
|-14--14-14-14-14-14-14-14-14-14-14-14-|
|-----14-14----14-14----14-14----14-14-|
|-----15-15----15-15----15-15----15-15-|


   +W                                      +H                  E  E     E  E
|---------------------------------------|---------------------------------------|
|---------------------------------------|---------------------------------------|
|-(12)----------------------------------|-(12)----------------12-12----13-14----|
|-(12)----------------------------------|-(12)----------------12-12----13-14----|
|-(10)----------------------------------|-(10)----------------10-10----11-12----|
|---------------------------------------|---------------------------------------|
|
|   E   S  S  E  S  S  E  S  S  E  S  S     E   S  S  E  S  S  E  S  S  E  S  S
|---------------------------------------|---------------------------------------|
|--17--------17-------17-------17-------|--17--------17-------17-------17-------|
|---------------------------------------|---------------------------------------|
|--14--14-14-14-14-14-14-14-14-14-14-14-|--14--14-14-14-14-14-14-14-14-14-14-14-|
|------14-14----14-14----14-14----14-14-|------14-14----14-14----14-14----14-14-|
|------15-15----15-15----15-15----15-15-|------15-15----15-15----15-15----15-15-|


   +W
|----------------------------------------|
|----------------------------------------|
|-(14)-----------------------------------|
|-(14)-----------------------------------|
|-(12)-----------------------------------|
|----------------------------------------|
|
|   E   S  S  E  S  S  E  S  S  E  S  S
|----------------------------------------|
|--17--------17-------17-------17--------|
|----------------------------------------|
|--14--14-14-14-14-14-14-14-14-14-14-14--|
|------14-14----14-14----14-14----14-14--|
|------15-15----15-15----15-15----15-15--|


   +H                  E  E     E  E
|---------------------------------------|
|---------------------------------------|
|-(14)-----------------2--3-----4--5----|
|-(14)-----------------2--3-----4--5----|
|-(12)-----------------0--1-----2--3----|
|---------------------------------------|
|
|   E   S  S  E  S  S  E  S  S  E  S  S
|---------------------------------------|
|--17--------17-------17-------17-------|
|---------------------------------------|
|--14--14-14-14-14-14-14-14-14-14-14-14-|
|------14-14----14-14----14-14----14-14-|
|------15-15----15-15----15-15----15-15-|


  +W                                      H                E E E E
|--------------------------------------|----------------------------|
|--------------------------------------|--3-------------------------|
|-(5)----------------------------------|--2-------------------------|
|-(5)----------------------------------|--0-------------------------|
|-(3)----------------------------------|----------------------------|
|--------------------------------------|---------------------0-3-0--|
|
|  E   S  S  E  S  S  E  S  S  E  S  S    E  S  S  E  S  S E E E E
|--------------------------------------|----------------------------|
|-17--------17-------17-------17-------|-17-------17----------------|
|--------------------------------------|----------------------------|
|-14--14-14-14-14-14-14-14-14-14-14-14-|-14-14-14-14-14-14----------|
|-----14-14----14-14----14-14----14-14-|----14-14----14-14----------|
|-----15-15----15-15----15-15----15-15-|----15-15----15-15---0-3-0--|


  Gtrs I, II
  +Q   E E E E +E  E   +E  E Q  H      Q  E E E E +E  E   +E  E Q  H
|--------------------|---------------|------------------|---------------|
|--------------------|---------------|------------------|---------------|
|--------------------|---------------|------------------|---------------|
|--------------------|---------------|------------------|---------------|
|--------------------|---------------|------------------|---------------|
|-(0)--0-0-3-0-(0)-3-|-(3)-0-3--0----|-0--0-0-3-0-(0)-3-|-(3)-0-3--0----|


  Q  E E E E +E  E   +E  E Q  H      E E E E E E E E   E E E E H
|------------------|---------------|-----------------|---------0----|
|------------------|---------------|-----------------|---------0----|
|------------------|---------------|-----------------|-----2-3-4----|
|------------------|---------------|-----------------|-----0-1-2----|
|------------------|---------------|-----------------|---------2----|
|-0--0-0-3-0-(0)-3-|-(3)-0-3--0----|-0-0-0-0-3-0-0-3-|-0-0-----0----|


  +W           +W
|-(0)--------|-(0)----*|
|-(0)--------|-(0)----*|
|-(4)--------|-(4)----*|
|-(2)--------|-(2)----*|
|-(2)--------|-(2)----*|
|-(0)--------|-(0)----*|



Duration Legend
---------------
W - whole; H - half; Q - quarter; E - 8th; S - 16th; T - 32nd; X - 64th; a - acciaccatura
+ - note tied to previous; . - note dotted; .. - note double dotted
Uncapitalized letters represent notes that are staccato (1/2 duration)
Irregular groupings are notated above the duration line
Duration letters will always appear directly above the note/fret number it represents the
duration for.  Duration letters with no fret number below them represent rests.  Multi-
bar rests are notated in the form Wxn, where n is the number of bars to rest for.  Low
melody durations appear below the staff

Tablature Legend
----------------
 h   - hammer-on
 p   - pull-off
 b   - bend
 pb  - pre-bend
 r   - bend release (if no number after the r, then release immediately)
 /\  - slide into or out of (from/to "nowhere")
 s   - legato slide
 S   - shift slide
 - natural harmonic
[n]  - artificial harmonic
n(n) - tapped harmonic
 ~   - vibrato
 tr  - trill
 T   - tap
 TP  - trem. picking
 PM  - palm muting
\n/  - tremolo bar dip; n = amount to dip
 \n  - tremolo bar down
 n/  - tremolo bar up
/n\  - tremolo bar inverted dip
 =   - hold bend; also acts as connecting device for hammers/pulls
 <> - volume swell (louder/softer)
 x   - on rhythm slash represents muted slash
 o   - on rhythm slash represents single note slash

Misc Legend
-----------
 |  - bar
||  - double bar
||o - repeat start
o|| - repeat end
*|  - double bar (ending)
 :  - bar (freetime)
 $  - Segno
 &  - Coda
Tempo markers -  = BPM(8/16=s8/s16), where s8 = swing 8ths, s16 = swing 16ths





Comments


Popular X Japan tabs & chords
Ill Kill You 2 Bass Tabs
Miscast Bass Tabs
Art Of Life Chords
Amethyst Tabs
Dahlia Tabs
Drain Tabs
Kurenai Tabs
Last Song Tabs
Rose Of Pain Tabs
Art Of Life Ukulele


Song lyrics



↑ Back to top | Tablatures and chords are parodies/interpretations of the original songs. You may use it for private study, scholarship, research or language learning purposes only
© 2014 AZChords.com Contact us | Privacy policy | DMCA | Add/correct tabs | Request tabs | Top 50 tabs