» » »

X-Ecutioners, Like This Tabs (ver.1)

Artists:  A B C D E F G H I J K L M N O P Q R S T U V W X Y Z # 

Like This Tabs (ver.1)

X-Ecutioners Tabs
 Rating:
4/5 (4 votes)
Like This lessons Tabs too difficult? Try these video lessons and learn fast
1
                This is a cool hip-hop song featured in the game 'SSX3'

SONG SETUP:
Chords Basic Pattern
Chords Vamping Pattern
BREAK 1
Chords Basic Pattern
BREAK 2
Chords Basic Pattern
BREAK 3
Chords Vamping Pattern
BREAK 4


Verse/Chorus Chords:

This is the basic pattern used during the song.
|-------------|
|-x-x-8-x-x-8-|
|-x-x-8-x-x-8-|
|-x-x-7-x-x-7-|
|-x-x-8-x-x-8-|
|-------------|

When the lyrics kick in, mess around with that pattern by vamping a little bit. Here's a 
of the vamping I hear during the lyrical parts:

|-----------------------------------------|
|-x-x-8---x-8---x-8---x-8-8-8---x-7/8-8-8-|
|-x-x-8---x-8---x-8---x-8-8-8---x-7/8-8-8-|
|-x-x-7---x-7---x-7---x-7-7-7---x-6/7-7-7-|
|-x-x-8---x-8---x-8---x-8-8-8---x-7/8-8-8-|
|-----------------------------------------|

BREAK:

This is the riff where the DJ starts scratching.

|-----------------------------------------|
|-----------------------------------------|
|-----------------------------------------|
|---------------------1-2-3---------------|  X4
|-------------1-1--3----------------------|
|-1-1-3-1-4-------------------------------|

BREAK 2:

This section is played twice.
|------------------------------------------------|
|------------------------------------------------|
|------------------------------------------------|
|-3-3-2-2-1---1--1--1-1-1-1-1-3-3-2-2-1---1--1--1|
|------------------------------------------------|
|------------------------------------------------|

|-------| This is played after playing BREAK 2 for the first time.
|-------|
|-------|
|-------|
|-1-2-3-|
|-------|

|-------| This is played after repeating BREAK 2.
|-------|
|-------|
|-1-2-3-|
|-------|
|-------|

BREAK 3:
|-----------------------------|
|-----------------------------|
|-----------------------------|
|-----------------------------|
|-----------------------------|
|-1-1-3-1-4--1-1--3-1-4--3-3--|


BREAK 4:
|-------------------------------------------------------------------------|
|-------------------------------------------------------------------------|
|-------------------------------------------------------------------10-10-|
|-------------------------------------5-5-6-6-8-8-10-10-12-12-13-13-------|
|-------------1-1-3-3-5-5-6-6-8-8-8-8-------------------------------------|
|-1-1-3-3-4-4-------------------------------------------------------------|


|---------------------------------------------------------------------------|
|------------------11-11-12-12-13-13-13--------------------13-13-13-13-13-13|
|10-10-12-12-13-13----------------------------10-10-10-10--15b17-17-17-17-17|
|---------------------------------------------------------------------------|
|------------------------------------------11-------------------------------|
|---------------------------------------------------------------------------|
                                    ^This part here is hard to hear, but   ^
                                     listen closely and you should hear the
                                     guitar in the background.

After this Break the song ends on the synth. You're done! :P
            
Submit corrections

comments powered by Disqus
↑ Back to top | X-Ecutioners Tabs for Like This. Lyrics for acoustic guitar and electric guitar. 1 Tablatures and chords are parodies/interpretations of the original songs. You may use it for private study, scholarship, research or language learning purposes only