» » »

Going Down Tabs (ver.2)

Artists:  A B C D E F G H I J K L M N O P Q R S T U V W X Y Z # 

Going Down Tabs (ver.2)

X-Ecutioners
Rating:
0/5 (0 votes)

Hard to play? Try these video lessons and learn fast.
                Its Going Down

The X-ecutioners


If there are any problems with the song
Or if you have suggestions, e-mail me at

Standard Tuning (Low to High: E, A, D, G, B, E)

D=downward strumming
U=upward strumming

VERSE:
E--------------------------------------------------------------------------
B--------------------------------------------------------------------------
G--------------------------------------------------------------------------
D--2-2----5---2----------2--2--2--2----------------------------------
A--2-2----5---2----------2--2--2--2-------------------------------------
E--2-2----3---2----------0--0--0--0-------------------------------------
                                   D  U  D   U
CHORUS:
E--------------------------------------------------------------------------
B--------------------------------------------------------------------------
G--------------------------------------------------------------------------
D--2-2----5----2---2-2-2----2--2--2--2---------------------------------
A--2-2----5----2---2-2-2----2--2--2--2---------------------------------
E--2-2----3----2---2-2-2----0--0--0--0---------------------------------
                                        D  U  D  U

That’s the whole song pretty much…its very repetitive…listen to the song for while and u’ll get it.

CHEERS.

Benny.
            
Hard to play? Try these video lessons and learn fast. | Correct




comments powered by Disqus
↑ Back to top | Tablatures and chords are parodies/interpretations of the original songs. You may use it for private study, scholarship, research or language learning purposes only