» » »

Xavier Rudd, Whirlpool Tabs (ver.1)

Artists:  A B C D E F G H I J K L M N O P Q R S T U V W X Y Z # 

Whirlpool Tabs (ver.1)

Xavier Rudd Tabs
 Rating:
4/5 (4 votes)
Whirlpool lessons Tabs too difficult? Try these video lessons and learn fast
1
                Titre: WHIRLPOOL
Artiste: Xavier Rudd


si vous savez jouer Whirlpool, vous savez jouer Energy Song du meme artiste...


Accords:

Am   =x02210
Asus4=x02230
C    =x32010
Cadd9=x32030 et x32033
G    =320003 et 320033
Gsus4=3x0013
D    =xx0232
Dsus4=xx0233
F    =xx3211
Fadd9=xx3213


Capo 5

Intro et Couplet:

   Am      Asus4   C       Cadd9   G       Gsus4   G       Gsus4 

|------0-------0-------0-------0-------3-------3-------3-------3---|
|--1-------3-------1-------3-------0-------1-------0-------1-------|
|--|-2-----|-2-----|-0-----|-0-----|-0-----|-0-----|-0-----|-0-----|  
|--|-------|-------|-------|-------|-------|-------|-------|-------|
|--0-----0-0-----0-3-----3-3-------|-------|-------|-------|-------|
|--------------------------------0-3-----3-3-----3-3-----3-3-----3-|


Refrain

   D       Dsus4   G               Cadd9           G             (X2)

|--2---2---3---3-------3-------3-------3-------3-------3-------3---|
|----3-------3-----3-------3-------3-------3-------3-------3-------|
|--------------------0-------0-------0-------0-------0-------0-----|
|--0-----0-0-------------------------------------------------------|
|----------------------------------3-----3-3-----------------------|
|----------------0-3-----3-3-----3---------------0-3-----3-3-----3-|

   C               G               C               G

|------0-------0-------3-------3-------0-------0-------3-------3---|
|--1-------1-------0-------0-------1-------1-------0-------0-------|
|----0-------0-------0-------0-------0-------0-------0-------0-----|
|------------------------------------------------------------------|
|--3-----3-3-----------------------3-----3-3-----------------------|
|----------------0-3-----3-3-----3---------------0-3-----3-3-----3-|


Retour a l'intro etc etc......puis

FINAL:


   F       Fsus4   Am      Asus4   C       Cadd9  G       Gsus4      (X4)

|--1---1---3---3-------0-------0-------0-------0------3-------3----|
|----1-------1-----1-------3-------1-------3------0-------1--------|
|--------------------2-------2-------0-------0------0-------0------|
|--3-----3-3-----0-2-----2-2---------------------------------------|
|--------------------------------0-3-----3-3-----------------------|
|-----------------------------------------------0-3-----3-3-----3--|

Finir sur alternance de Am/Asus4 tout en ralentissant.


Intro/Couplet:
Am   Asus4    C     Cadd9   G   Gsus4   G   Gsus4             
     Lately i saved       myself                              
     Lately i saved       myself                                    
     Lately i saved       myself                                    
     See I, I was wrong but i saved myself                          
                                                                    
Refrain
D     Dsus4         G                                               
  And You held out your hand                                        
            Cadd9      G                                            
and it was all that i had                                           
D           Dsus4       G
  All these places i've been
         Cadd9               G
That you couldn't share with me
         Cadd9           G
But your tears had their place
         Cadd9       G
On those cold lonely days
      Am   Asus4       C   Cadd9   G   Gsus4   G   Gsus4
And I was wrong      but i need    you now

Pont= Intro

Couplet 2

Lately i saved       myself
Lately i saved       myself
Lately i saved       myself
'Cause I, I was wrong but i saved myself

Refrain 2

You held out your hand when it was all that I had
Through those rapid winds of change you were solid at the base
But your tears had their place on those cold lonely days
And I was wrong but I need you now

Pont= Intro

Final

F  Fsus4   Am   Asus4  C  Cadd9 G  Gsus4

Sooooo so sorry, I'm so sorry I'm
Sooooo so sorry, I'm so sorry I'm
Sooooo so sorry, I'm so sorry I'm
Sooooo so sorry, 'cause I was wrong
            
Submit corrections

comments powered by Disqus
↑ Back to top | Xavier Rudd Tabs for Whirlpool. Lyrics for acoustic guitar and electric guitar. 1 Tablatures and chords are parodies/interpretations of the original songs. You may use it for private study, scholarship, research or language learning purposes only