» » »

Timber And Wood Tabs (ver.1)

Artists:  A B C D E F G H I J K L M N O P Q R S T U V W X Y Z # 

Timber And Wood Tabs (ver.1)

Xavier Rudd
Rating:
5/5 (2 votes)

Hard to play? Try these video lessons and learn fast.
                PLEASE NOTE- I did'nt create this tab, i got these from archives i found from  "xrtab" 
has shut down. I only put these tabs on to make it easy for people to find these tabs now 
the site has shut down. -Peace


Timber and Wood by Xavier Rudd
------------------------------


This is the real Timber and Wood. I figured it watching X

Riff 1
D|--0-0-0--0--0--0--0--0-0--0--0------0-0-0--0--0--0-0 -0-0 0 0--||
A|--0-0-0--0--0--0--0--0-0--0--0------0-0-0--0--0--0-0--0-0-0-0--||
G|--9-9-11-11-11-12-11-9-11-11-11-----9-9-11-11-11-9-11-9-7-7-7--||
D|---------------------------------------------------------------||
A|---------------------------------------------------------------||
D|---------------------------------------------------------------||

Riff 2
e|---0--0---0--0---0-----0---0---0---0---0-----0---0--0-0-0----0--0--0--0--0--||
B|---0--0---0--0---0-----0---0---0---0---0-----0---0--0-0-0----0--0--0--0--0--||
G|---14-14--14-14--14h15-12--12--12--12--12h13-9---9--9-9-9h10-7--7--7--9--7--||
D|----------------------------------------------------------------------------||
A|----------------------------------------------------------------------------||
E|----------------------------------------------------------------------------||

Riff 3
e|----------------------------------------------------||
B|----------------------------------------------------||
G|--5-5-4-4-4-4h5--3-3-2-2-2--------------------------||
D|--0-0-0-0-0-0----0-0-0-0-0---2-2-0-0-0-2-4-2-0-0-0--||
A|-----------------------------0-0-0-0-0-0-0-0-0-0-0--||
E|----------------------------------------------------||

Interlude
D|--------------------------------------------||
A|--------------------------------------------||
G|------------0-3-2-0------------------(0)-2--||
D|--------0--------------3-----------0-----2--||
A|--0h2h3----------------0h2h3-------0-0------||
D|--------------------------------------------||


Riff 4
e|-------------------------------------------||
B|-------------------------------------------||
G|--------5-5-------3-3-------2-2------------||
D|--0-0-0-----0-0-0-----0-0-0-----2-4-2-0-0--||
A|--0-0-0-----0-0-0-----0-0-0-----------0-0--||
E|--0-0-0-----0-0-0-----0-0-0-----------0-0--||

Riff 5
e|---0--0--0---0---0---0--0---0---0--0---0---0--0--0---0---0--0--0-0-0---0---0---||
B|---0--0--0---0---0---0--0---0---0--0---0---0--0--0---0---0--0--0-0-0---0---0---||
G|---14-14-14--17--17--14-14--15--15-12--12--15-15-15--14--12-12-9-9-11--11--11--||
D|-------------------------------------------------------------------------------||
A|-------------------------------------------------------------------------------||
E|-------------------------------------------------------------------------------||

Repeat parts or phases where nessesary
            
Hard to play? Try these video lessons and learn fast. | Correct




comments powered by Disqus
↑ Back to top | Tablatures and chords are parodies/interpretations of the original songs. You may use it for private study, scholarship, research or language learning purposes only