>
 >
Things Meant To Be

Things Meant To Be Guitar Tabs

Xavier Rudd - Things Meant To Be chords, tabs, tablatures, lyrics

Guitar lessons | Add/correct | Request | Top 50 tabs Artists:  A B C D E F G H I J K L M N O P Q R S T U V W X Y Z 0-9

Things Meant To Be Guitar Tabs – Xavier Rudd

CD, Sheet music, Poster

Do you like Things Meant To Be? Share with your friends now
Tabs
PLEASE NOTE- I did'nt create this tab, i got these from archives i found from  "xrtab" 
has shut down. I only put these tabs on to make it easy for people to find these tabs now 
the site has shut down. -Peace

                               THINGS MEANT TO BE
                           As recorded by Xavier Rudd
                          (From the 2002 Album TO LET)

Words and Music by Xavier Rudd
1st Floor, 13 Wells St, Frankston, Vic 3199. Telephone: 9781 4467

Lapslide Tuning - DADF#AD

Intro   ( 4/4, Q=126 )

|-------------|------------|--------||
|-------------|------------|--------||
|-----1s==3---|-(3)--------|-(3)----||
|-------------|------------|--------||
|-------------|------------|--------||
|-----0--(0)--|-(0)--------|-(0)----||


Verse 1

|---------0-----|-------0------|-------0------|-------0------|
|---------------|---------0----|--------------|---------0----|
|-1s3--------1--|-0---------0--|--------------|-----------0--|
|------0--------|----0---------|-2--------/5s=|=4--4---------|
|---------------|--------------|--------------|--------------|
|---0-----------|-0------------|----0---------|-0------------|


|---------0-----|-------0------|-------0------|-------0-------|
|---------------|---------0----|--------------|---------0-----|
|-1s3--------1--|-0---------0--|--------------|-----------0---|
|------0--------|----0---------|-2--------/5s=|=4--4----------|
|---------------|--------------|--------------|---------------|
|---0-----------|-0------------|----0---------|-0-------------|


|---------0-----|-------0------|-------0------|-------0-------|
|---------------|---------0----|--------------|---------0-----|
|-1s3--------1--|-0---------0--|--------------|-----------0---|
|------0--------|----0---------|-2--------/5s=|=4--4----------|
|---------------|--------------|--------------|---------------|
|---0-----------|-0------------|----0---------|-0-------------|


|---------0-----|-------0------|-------0-----|-------0-------||
|---------------|---------0----|-------------|---------0-----||
|-1s3--------1--|-0---------0--|-------------|-----------0---||
|------0--------|----0---------|-2-----------|----0----------||
|---------------|--------------|----------2s=|=5-------------||
|---0-----------|-0------------|----0--------|-0-------------||


Chorus
|-------0--------|-------0------|-------0--------|-------0------|
|---------0-(0)--|---------0----|---------0-(0)--|---------0----|
|-5--------------|-5---------5--|-5--------------|-5---------5--|
|----5-----------|----5---------|----5-----------|----5---------|
|----------------|--------------|----------------|--------------|
|-5--------------|-5------------|-5--------------|-5------------|


|-------0--------|-------0------|-------0--------|-------0------|
|---------0-(0)--|---------0----|---------0-(0)--|---------0----|
|-0--------------|-0---------0--|-5--------------|-5---------5--|
|----0-----------|----0---------|----5-----------|----5---------|
|----------------|--------------|----------------|--------------|
|-0--------------|-0------------|-5--------------|-5------------|


|-------0--------|--------------|-------0--------|-------0-------||
|---------0-(0)--|-5-----5s7----|---------0-(0)--|---------0-----||
|-5--------------|----5--5s7----|----------------|-0---------0---||
|----5-----------|--------------|----0-----------|----0----------||
|----------------|--------------|----------------|---------------||
|-5--------------|-5-----5s7----|-0--------------|-0-------------||


Bridge
|---------0------|-------0------|-------0--------|-<12>---------------------|
|-----------0----|---------0----|---------0-(0)--|-------<12>---------------|
|-5s7---------7--|-5---------5--|-0--------------|-------------<12>---------|
|-5s7--7---------|-5--5---------|-0--0-----------|-------------------<12>---|
|----------------|--------------|----------------|--------------------------|
|-5s7------------|-5------------|-0--------------|--------------------------|


|---------0------|-------0------|-------0--------|-------0-------||
|-----------0----|---------0----|---------0-(0)--|---------0-----||
|-5s7---------7--|-5---------5--|-0--------------|-0---------0---||
|-5s7--7---------|-5--5---------|-0--0-----------|----0----------||
|----------------|--------------|----------------|---------------||
|-5s7------------|-5------------|-0--------------|-0-------------||


Verse 2
|---------0-----|-------0------|-------0------|-------0-------|
|---------------|---------0----|--------------|---------0-----|
|-1s3--------1--|-0---------0--|--------------|-----------0---|
|------0--------|----0---------|-2--------/5s=|=4--4----------|
|---------------|--------------|--------------|---------------|
|---0-----------|-0------------|----0---------|-0-------------|


|---------0-----|-------0------|-------0-----|-------0-------||
|---------------|---------0----|-------------|---------0-----||
|-1s3--------1--|-0---------0--|-------------|-----------0---||
|------0--------|----0---------|-2-----------|----0----------||
|---------------|--------------|----------2s=|=5-------------||
|---0-----------|-0------------|----0--------|-0-------------||


Chorus
|-------0--------|-------0------|-------0--------|-------0------|
|---------0-(0)--|---------0----|---------0-(0)--|---------0----|
|-5--------------|-5---------5--|-5--------------|-5---------5--|
|----5-----------|----5---------|----5-----------|----5---------|
|----------------|--------------|----------------|--------------|
|-5--------------|-5------------|-5--------------|-5------------|


|-------0--------|-------0------|-------0--------|-------0------|
|---------0-(0)--|---------0----|---------0-(0)--|---------0----|
|-0--------------|-0---------0--|-5--------------|-5---------5--|
|----0-----------|----0---------|----5-----------|----5---------|
|----------------|--------------|----------------|--------------|
|-0--------------|-0------------|-5--------------|-5------------|


|-------0--------|--------------|-------0--------|-------0-------||
|---------0-(0)--|-5-----5s7----|---------0-(0)--|---------0-----||
|-5--------------|----5--5s7----|----------------|-0---------0---||
|----5-----------|--------------|----0-----------|----0----------||
|----------------|--------------|----------------|---------------||
|-5--------------|-5-----5s7----|-0--------------|-0-------------||


Bridge
|---------0------|-------0------|-------0--------|-<12>---------------------|
|-----------0----|---------0----|---------0-(0)--|-------<12>---------------|
|-5s7---------7--|-5---------5--|-0--------------|-------------<12>---------|
|-5s7--7---------|-5--5---------|-0--0-----------|-------------------<12>---|
|----------------|--------------|----------------|--------------------------|
|-5s7------------|-5------------|-0--------------|--------------------------|


|-------0------|-------0------|-------0--------|----------------------|
|---------0----|---------0----|---------0-(0)--|----------------<12>--|
|-7---------7--|-5---------5--|-0--------------|-0--------<12>--------|
|-7--7---------|-5--5---------|-0--0-----------|----<12>--------------|
|--------------|--------------|----------------|----------------------|
|-7------------|-5------------|-0--------------|-0--------------------|


|-------0------|-------0------|-------0--------|-<12>--------------------|
|---------0----|---------0----|---------0-(0)--|-------<12>--------------|
|-7---------7--|-5---------5--|-0--------------|-------------<12>--------|
|-7--7---------|-5--5---------|-0--0-----------|-------------------<12>--|
|--------------|--------------|----------------|-------------------------|
|-7------------|-5------------|-0--------------|-------------------------|


|-------0------|-------0------|-------0--------|-------0------||
|---------0----|---------0----|---------0-(0)--|---------0----||
|-7---------7--|-5---------5--|-0--------------|-0---------0--||
|-7--7---------|-5--5---------|-0--0-----------|----0---------||
|--------------|--------------|----------------|--------------||
|-7------------|-5------------|-0--------------|-0------------||


Interlude
|--------0------|-------0------|-------0------|-------0------|
|---------------|--------------|--------------|---------0----|
|-12--------10S=|=8--------10S=|=7--------10S=|=8---------0--|
|-----0---------|----0---------|----0---------|----0---------|
|---------------|--------------|--------------|--------------|
|--0------------|-0------------|-0------------|-0------------|


|--------0------|-------0------|-------0------|-------0------||
|---------------|--------------|--------------|---------0----||
|-12--------10S=|=8--------10S=|=7--------10S=|=8---------0--||
|-----0---------|----0---------|----0---------|----0---------||
|---------------|--------------|--------------|--------------||
|--0------------|-0------------|-0------------|-0------------||


|-------0------|-------0------|----------------|-------5------|
|---------0----|---------0----|----------------|-5-------5----|
|--------------|--------------|-------5--------|----5------5--|
|-9--9------9S=|=7--7------7S=|=5--5----5-(5)--|--------------|
|--------------|--------------|----------------|--------------|
|-9------------|-7------------|-5--------------|--------------|


|-------0------|---------0-------|----------------|-------5------|
|---------0----|-----------0-----|----------------|-5-------5----|
|--------------|-----------------|-------5--------|----5------5--|
|-9--9------9S=|=12--12------12S=|=5--5----5-(5)--|--------------|
|--------------|-----------------|----------------|--------------|
|-9------------|-12--------------|-5--------------|--------------|


|----------------|------||
|----------------|-5----||
|-------5--------|------||
|-5--5----5-(5)--|------||
|----------------|------||
|-5--------------|------||


|---------0-----|-------0------|-------0------|-------0-------|
|---------------|---------0----|--------------|---------0-----|
|-1s3--------1--|-0---------0--|--------------|-----------0---|
|------0--------|----0---------|-2--------/5S=|=4--4----------|
|---------------|--------------|--------------|---------------|
|---0-----------|-0------------|----0---------|-0-------------|


|---------0-----|-------0------|-------0-----|-------0-------||
|---------------|---------0----|-------------|---------0-----||
|-1s3--------1--|-0---------0--|-------------|-----------0---||
|------0--------|----0---------|-2-----------|----0----------||
|---------------|--------------|----------2s=|=5-------------||
|---0-----------|-0------------|----0--------|-0-------------||


|-------0--------|-------0------|-------0--------|-------0------|
|---------0-(0)--|---------0----|---------0-(0)--|---------0----|
|-5--------------|-5---------5--|-5--------------|-5---------5--|
|----5-----------|----5---------|----5-----------|----5---------|
|----------------|--------------|----------------|--------------|
|-5--------------|-5------------|-5--------------|-5------------|


|-------0--------|-------0------|-------0--------|-------0------|
|---------0-(0)--|---------0----|---------0-(0)--|---------0----|
|-0--------------|-0---------0--|-5--------------|-5---------5--|
|----0-----------|----0---------|----5-----------|----5---------|
|----------------|--------------|----------------|--------------|
|-0--------------|-0------------|-5--------------|-5------------|


|-------0--------|---------------|-----------0--------|---------0------||
|---------0-(0)--|-5-----5s7-----|-------------0-(0)--|-----------0----||
|-5--------------|----5--5s7--7--|-7s12---------------|-12----------0--||
|----5-----------|---------------|-------12-----------|-----12---------||
|----------------|---------------|--------------------|----------------||
|-5--------------|-5-----5s7-----|-7s12---------------|-12-------------||


Bridge
|---------0------|-------0------|-------0--------|-<12>---------------------|
|-----------0----|---------0----|---------0-(0)--|-------<12>---------------|
|-5s7---------7--|-5---------5--|-0--------------|-------------<12>---------|
|-5s7--7---------|-5--5---------|-0--0-----------|-------------------<12>---|
|----------------|--------------|----------------|--------------------------|
|-5s7------------|-5------------|-0--------------|--------------------------|


|-------0------|-------0------|-------0--------|----------------------|
|---------0----|---------0----|---------0-(0)--|-------------<12>-----|
|-7---------7--|-5---------5--|-0--------------|-------<12>--------0--|
|-7--7---------|-5--5---------|-0--0-----------|-<12>-----------------|
|--------------|--------------|----------------|----------------------|
|-7------------|-5------------|-0--------------|----------------------|


|-------0------|-------0------|-------0--------|-------------<12>------------|
|---------0----|---------0----|---------0-(0)--|------------------<12>-------|
|-7---------7--|-5---------5--|-0--------------|-------<12>------------<12>--|
|-7--7---------|-5--5---------|-0--0-----------|-<12>------------------------|
|--------------|--------------|----------------|-----------------------------|
|-7------------|-5------------|-0--------------|-----------------------------|


|-------0------|-------0------|-------0--------|-<12>--------------------|
|---------0----|---------0----|---------0-(0)--|-------<12>--------------|
|-7---------7--|-5---------5--|-0--------------|-------------<12>--------|
|-7--7---------|-5--5---------|-0--0-----------|-------------------<12>--|
|--------------|--------------|----------------|-------------------------|
|-7------------|-5------------|-0--------------|-------------------------|


|---------0------|-------0------|-------0--------|-------0-------|
|-----------0----|---------0----|---------0-(0)--|---------0-----|
|-5s7---------7--|-5---------5--|----------------|-----------0---|
|-5s7--7---------|-5--5---------|----0-----------|----0----------|
|----------------|--------------|----------------|---------------|
|-5s7------------|-5------------|-0--------------|-0-------------|


|---------0------|-------0------|-------0--------|-------<12>-------||
|-----------0----|---------0----|---------0-(0)--|------------------||
|-5s7---------7--|-5---------5--|-0--------------|-0----------------||
|-5s7--7---------|-5--5---------|-0--0-----------|----0--------0----||
|----------------|--------------|----------------|------------------||
|-5s7------------|-5------------|-0--------------|-0-------------0--||


Outro
|---------0------|-------0------|-------0--------|-----------------|
|-----------0----|---------0----|---------0-(0)--|-----------------|
|-5s7---------7--|-5---------5--|-0--------------|-----------------|
|-5s7--7---------|-5--5---------|-0--0-----------|-----------------|
|----------------|--------------|----------------|-5s4-(4)s=2p==0--|
|-5s7------------|-5------------|-0--------------|-----------------|


|-------0------|-------0------|-------0--------|-<12>------------------------|
|---------0----|---------0----|---------0-(0)--|-------<12>------------------|
|-7---------7--|-5---------5--|-0--------------|------------<12>-------------|
|-7--7---------|-5--5---------|-0--0-----------|------------------<12>-------|
|--------------|--------------|----------------|-----------------------<12>--|
|-7------------|-5------------|-0--------------|-----------------------------|


|-------0-------|-------------|---------------|
|---------0-----|-------5s=7--|-(7)------(7)s=|
|-7---------7s5-|-5-----5s=7--|-(7)------(7)s=|
|-7--7----------|----5--------|---------------|
|---------------|-------------|---------------|
|-7-------------|-5-----------|---------------|


|-----------------12---|-(12)----*|
|-(10)s(12)---12-------|-(12)----*|
|-(10)s(12)------------|-(12)----*|
|----------------------|---------*|
|----------------------|---------*|
|----------------------|---------*|


Tablature Legend
----------------
h   - hammer-on
p   - pull-off
b   - bend
pb  - pre-bend
r   - bend release (if no number after the r, then release immediately)
/\  - slide into or out of (from/to "nowhere")
s   - legato slide
S   - shift slide
  - natural harmonic
[n]  - artificial harmonic
n(n) - tapped harmonic
~   - vibrato
tr  - trill
T   - tap
TP  - trem. picking
PM  - palm muting
\n/  - tremolo bar dip; n = amount to dip
\n  - tremolo bar down
n/  - tremolo bar up
/n\  - tremolo bar inverted dip
=   - hold bend; also acts as connecting device for hammers/pulls
<>  - volume swell (louder/softer)
x   - on rhythm slash represents muted slash
o   - on rhythm slash represents single note slash

Misc Legend
-----------
|  - bar
||  - double bar
||o - repeat start
o|| - repeat end
*|  - double bar (ending)
:  - bar (freetime)
$  - Segno
&  - Coda
Tempo markers -  = BPM(8/16=s8/s16), where s8 = swing 8ths, s16 = swing 16ths





Comments


Popular Xavier Rudd tabs & chords
3 Degrees Intro Tabs
Follow The Sun Tabs
Fortune Teller 2 Tabs
Partnership Tabs
River Groove Intro Tabs
Shiver Tabs
Shiver Intro Tabs
Come Back Ukulele
Land Rights Ukulele
Little Chief Ukulele


Song lyrics



↑ Back to top | Tablatures and chords are parodies/interpretations of the original songs. You may use it for private study, scholarship, research or language learning purposes only
© 2014 AZChords.com Contact us | Privacy policy | DMCA | Add/correct tabs | Request tabs | Top 50 tabs