» » »

Wind Cries Mary Tabs (ver.1)

Artists:  A B C D E F G H I J K L M N O P Q R S T U V W X Y Z # 

Wind Cries Mary Tabs (ver.1)

Xavier Rudd
Rating:
1/5 (1 vote)

Tabs too difficult? Try these video lessons and learn fast.
                   PLEASE NOTE- I did'nt create this tab, i got these from archives i found from  
which has shut down. I only put these tabs on to make it easy for people to find these tabs 
that the site has shut down. -Peace


THE WIND CRIES MARY
                           As recorded by Xavier Rudd
                          (From the 2002 Album TO LET)

Words and Music by Jimi Hendrex
Arranged by Xavier Rudd

Lapslide Tuning - FCFACF


Intro:
|--------------------------|--------------------------|
|--------------------------|--------------------------|
|--------------------------|--------------------------|
|-10-11-(11)-12-(12)--12\--|--------------------------|
|-10-11-(11)-12-(12)--12\--|-10-11-(11)-12-(12)--12\--|
|--------------------------|-10-11-(11)-12-(12)--12\--|


                                                    2/4
|---------------------12\--|-----------------------|---------||
|-10-11-(11)-12-(12)--12\--|-----------------------|---------||
|-10-11-(11)-12-(12)--12\--|-----------------------|---------||
|-10-11-(11)-12-(12)-------|-10-11-(11)-12-(12)----|-(12)----||
|--------------------------|-10-11-(11)-12-(12)----|-(12)----||
|--------------------------|-----------------------|---------||


Verse 1
4/4
          ~                               ~
|-------------|-----------------|-------------|------------------|
|-------------|-----------------|-------------|------------------|
|----7\-------|----0---------0--|----7\-------|----0---------0---|
|-7--7\---5---|-0--0-0-/5-0--0--|-7--7\---5---|-0--0-0-/5-0--0---|
|-7--7\---5---|-0----0-/5-0-----|-7--7\---5---|-0----0-/5-0------|
|-7-----------|-----------------|-7-----------|------------------|


          ~
|-------------|-----------------|
|-------------|-----------------|
|----7\-------|----0---------0--|
|-7--7\---5---|-0--0-0-/5-0--0--|
|-7--7\---5---|-0----0-/5-0-----|
|-7-----------|-----------------|


                                           ~~~
|-------------------|---------------------------|
|-------------------|---------------------------|
|---2---------------|---------------------------|
|---2---2--5--5---0-|-10-11-(11)-12-(12)--12\---|
|-----2-2--5--5-0---|-10-11-(11)-12-(12)--12\---|
|-2-----2--5--------|---------------------------|


                                           ~~~                        ~~~
|-------------------|--------------------------|--------------------------||
|-------------------|--------------------------|--------------------------||
|---2---------------|--------------------------|--------------------------||
|---2---2--5--5---0-|-10-11-(11)-12-(12)--12\--|-10-11-(11)-12-(12)--12\--||
|-----2-2--5--5-0---|-10-11-(11)-12-(12)-------|-10-11-(11)-12-(12)-------||
|-2-----2--5--------|--------------------------|--------------------------||


Verse 2
          ~                               ~
|-------------|-----------------|-------------|-----------------|
|-------------|-----------------|-------------|-----------------|
|----7\-------|----0---------0--|----7\-------|----0---------0--|
|-7--7\---5---|-0--0-0-/5-0--0--|-7--7\---5---|-0--0-0-/5-0--0--|
|-7--7\---5---|-0----0-/5-0-----|-7--7\---5---|-0----0-/5-0-----|
|-7-----------|-----------------|-7-----------|-----------------|


          ~
|-------------|-----------------|
|-------------|-----------------|
|----7\-------|----0---------0--|
|-7--7\---5---|-0--0-0-/5-0--0--|
|-7--7\---5---|-0----0-/5-0-----|
|-7-----------|-----------------|


                                           ~~~
|-------------------|---------------------------|
|-------------------|---------------------------|
|---2---------------|---------------------------|
|---2---2--5--5---0-|-10-11-(11)-12-(12)--12\---|
|-----2-2--5--5-0---|-10-11-(11)-12-(12)--12\---|
|-2-----2--5--------|---------------------------|


                                           ~~~                        ~~~
|-------------------|--------------------------|--------------------------||
|-------------------|--------------------------|--------------------------||
|---2---------------|--------------------------|--------------------------||
|---2---2--5--5---0-|-10-11-(11)-12-(12)--12\--|-10-11-(11)-12-(12)--12\--||
|-----2-2--5--5-0---|-10-11-(11)-12-(12)-------|-10-11-(11)-12-(12)-------||
|-2-----2--5--------|--------------------------|--------------------------||


Guitar Solo
|-----------------------------|------------------|
|-----------------------------|------------------|
|---0------------------10-----|-5-5---3-0-0----0-|
|-----/12-----10----------10\-|-5-5---3-0-0------|
|-----/12--------10-----------|------------------|
|-0--------10-------10--------|-5---0---0----0---|


|-----------------------------|-----------------------|
|-----------------------------|-----------------------|
|---0------------------10-----|-5-5---3s7---7-----7---|
|-----/12-----10----------10\-|-5-5---3s7-----7-------|
|-----/12--------10-----------|-----------------7-----|
|-0--------10-------10--------|-5---0-----7-----------|


|-----------------------------|------------------|
|-----------------------------|------------------|
|---0------------------10-----|-5-5---3-0-0----0-|
|-----/12-----10----------10\-|-5-5---3-0-0------|
|-----/12--------10-----------|------------------|
|-0--------10-------10--------|-5---0---0----0---|


|---------------------------------|
|---------------------------------|
|---2-----2-----2-----2-----2-----|
|-----2-----2-----2-----2-----2---|
|---------------------------------|
|-2-----2-----2-----2-----2-----2-|


|------------------------------------|---------------------------------|
|------------------------------------|---------------------------------|
|-/5-----5-----5-----5-----5-----(5)S|=8-----8-----8-----8-----8-------|
|----5-----5-----5-----5-----5-------|---8-----8-----8-----8-----8---8-|
|------------------------------------|---------------------------------|
|------5-----5-----5-----5-----5-----|-----8-----8-----8-----8-----8---|


|-----------------------------|------------------|
|-----------------------------|------------------|
|---0------------------10-----|-5-5---3-0-0----0-|
|-----/12-----10----------10\-|-5-5---3-0-0------|
|-----/12--------10-----------|------------------|
|-0--------10-------10--------|-5---0---0----0---|


|------------------|---------------|------------------|---------------||
|------------------|---------------|------------------|---------------||
|-5-5---3-0-0----0-|---------------|-5-5---3-0-0----0-|---------------||
|-5-5---3-0-0------|---------------|-5-5---3-0-0------|---------------||
|------------------|-3--3-0-3s5-5--|------------------|-3--3-0-3s5-5--||
|-5---0---0----0---|---------------|-5---0---0----0---|---------------||


Verse 3
          ~                               ~
|-------------|-----------------|-------------|-----------------|
|-------------|-----------------|-------------|-----------------|
|----7\-------|----0---------0--|----7\-------|----0---------0--|
|-7--7\---5---|-0--0-0-/5-0--0--|-7--7\---5---|-0--0-0-/5-0--0--|
|-7--7\---5---|-0----0-/5-0-----|-7--7\---5---|-0----0-/5-0-----|
|-7-----------|-----------------|-7-----------|-----------------|


          ~
|-------------|-----------------|
|-------------|-----------------|
|----7\-------|----0---------0--|
|-7--7\---5---|-0--0-0-/5-0--0--|
|-7--7\---5---|-0----0-/5-0-----|
|-7-----------|-----------------|


                                           ~~~
|-------------------|---------------------------|
|-------------------|---------------------------|
|---2---------------|---------------------------|
|---2---2--5--5---0-|-10-11-(11)-12-(12)--12\---|
|-----2-2--5--5-0---|-10-11-(11)-12-(12)--12\---|
|-2-----2--5--------|---------------------------|


                                           ~~~                        ~~~
|-------------------|--------------------------|--------------------------||
|-------------------|--------------------------|--------------------------||
|---2---------------|--------------------------|--------------------------||
|---2---2--5--5---0-|-10-11-(11)-12-(12)--12\--|-10-11-(11)-12-(12)--12\--||
|-----2-2--5--5-0---|-10-11-(11)-12-(12)-------|-10-11-(11)-12-(12)-------||
|-2-----2--5--------|--------------------------|--------------------------||


Verse 4
          ~                               ~
|-------------|-----------------|--------------|
|-------------|-----------------|--------------|
|----7\-------|----0---------0--|----7\--------|
|-7--7\---5---|-0--0-0-/5-0--0--|-7--7\---5----|
|-7--7\---5---|-0----0-/5-0-----|-7--7\---5----|
|-7-----------|-----------------|-7------------|


                            ~
|-----------------|-------------|-----------------|
|-----------------|-------------|-----------------|
|----0---------0--|----7\-------|----0---------0--|
|-0--0-0-/5-0--0--|-7--7\---5---|-0--0-0-/5-0--0--|
|-0----0-/5-0-----|-7--7\---5---|-0----0-/5-0-----|
|-----------------|-7-----------|-----------------|


|-------------------|--------------------------|-------------------|
|-------------------|--------------------------|-------------------|
|---2---------------|--------------------------|---2---------------|
|---2---2--5--5---0-|-10-11-(11)-12-(12)--12\--|---2---2--5--5---0-|
|-----2-2--5--5-0---|-10-11-(11)-12-(12)--12\--|-----2-2--5--5-0---|
|-2-----2--5--------|--------------------------|-2-----2--5--------|


|--------------------------|--------------------------|
|--------------------------|--------------------------|
|--------------------------|--------------------------|
|-10-11-(11)-12-(12)--12\--|--------------------------|
|-10-11-(11)-12-(12)--12\--|-10-11-(11)-12-(12)--12\--|
|--------------------------|-10-11-(11)-12-(12)--12\--|


|--------------------------|--------------------------*|
|--------------------------|--------------------------*|
|-10-11-(11)-12-(12)--12\--|--------------------------*|
|-10-11-(11)-12-(12)--12\--|-10-11-(11)-12-(12)--12\--*|
|--------------------------|-10-11-(11)-12-(12)--12\--*|
|--------------------------|--------------------------*|


Tablature Legend
----------------
h   - hammer-on
p   - pull-off
b   - bend
pb  - pre-bend
r   - bend release (if no number after the r, then release immediately)
/\  - slide into or out of (from/to "nowhere")
s   - legato slide
S   - shift slide
  - natural harmonic
[n]  - artificial harmonic
n(n) - tapped harmonic
~   - vibrato
tr  - trill
T   - tap
TP  - trem. picking
PM  - palm muting
\n/  - tremolo bar dip; n = amount to dip
\n  - tremolo bar down
n/  - tremolo bar up
/n\  - tremolo bar inverted dip
=   - hold bend; also acts as connecting device for hammers/pulls
<>  - volume swell (louder/softer)
x   - on rhythm slash represents muted slash
o   - on rhythm slash represents single note slash

Misc Legend
-----------
|  - bar
||  - double bar
||o - repeat start
o|| - repeat end
*|  - double bar (ending)
:  - bar (freetime)
$  - Segno
&  - Coda
Tempo markers -  = BPM(8/16=s8/s16), where s8 = swing 8ths, s16 = swing 16ths
            
Tabs too difficult? Try these video lessons and learn fast.


comments powered by Disqus
↑ Back to top | Tablatures and chords are parodies/interpretations of the original songs. You may use it for private study, scholarship, research or language learning purposes only