>
 >
One Short Story

One Short Story Guitar Tabs

Xavier Rudd - One Short Story chords, tabs, tablatures, lyrics

Guitar lessons | Add/correct | Request | Top 50 tabs Artists:  A B C D E F G H I J K L M N O P Q R S T U V W X Y Z 0-9

One Short Story Guitar Tabs – Xavier Rudd

CD, Sheet music, Poster

Do you like One Short Story? Share with your friends now
Tabs
PLEASE NOTE- I did'nt create this tab, i got these from archives i found from  "xrtab" 
has shut down. I only put these tabs on to make it easy for people to find these tabs now 
the site has shut down. -Peace


                                 ONE SHORT STORY
                           As recorded by Xavier Rudd
                          (From the 2002 Album TO LET)

Words and Music by Xavier Rudd
1st Floor, 13 Wells St, Frankston, Vic 3199. Telephone: 9781 4467

Lapslide Tuning - CGCEGC

Q=120  4/4
Verse

|-------0------|-5-----5------|-------0------|-5-----5-------|
|---------0----|---------5----|---------0----|---------5-----|
|-----------0--|-----------5--|-0---------0--|-----------5---|
|----0---------|----5---------|----0---------|----5----------|
|--------------|--------------|--------------|---------------|
|-0------------|-5------------|-0------------|-5-------------|


|-------0------|-5-----5------|-------0------|-5-----5------|
|---------0----|---------5----|---------0----|---------5----|
|-0---------0--|-----------5--|-0---------0--|-----------5--|
|----0---------|----5---------|----0---------|----5---------|
|--------------|--------------|--------------|--------------|
|-0------------|-5------------|-0------------|-5------------|


|-------0------|-5-----5------|-------0------|-5-----5------|
|---------0----|---------5----|---------0----|---------5----|
|-0---------0--|-----------5--|-0---------0--|-----------5--|
|----0---------|----5---------|----0---------|----5---------|
|--------------|--------------|--------------|--------------|
|-0------------|-5------------|-0------------|-5------------|


|-------0------|-5-----5------|-------0------|-5-----5------||
|---------0----|---------5----|---------0----|---------5----||
|-0---------0--|-----------5--|-0---------0--|-----------5--||
|----0---------|----5---------|----0---------|----5---------||
|--------------|--------------|--------------|--------------||
|-0------------|-5------------|-0------------|-5------------||


Pre-Chorus
|-------0------|-------0------|-------0------|-------<12>----|
|---------0----|---------0----|---------0----|---------------|
|-x--x------x--|--------------|--------------|-0-------------|
|-9--9------9--|-7--7------7--|-5--5------5--|----0----------|
|--------------|--------------|--------------|---------------|
|-9------------|-7------------|-5------------|-0-------------|


|-------0------|-------0------|-------0--------|-----------|--------||
|---------0----|---------0----|---------0-(0)--|-----------|--------||
|-x--x------x--|--------------|----------------|-----------|--------||
|-9--9------9--|-7--7------7--|-5--5-----------|-/7--------|-(7)----||
|--------------|--------------|----------------|-----------|--------||
|-9------------|-7------------|-5--------------|-/7--------|-(7)----||


Chorus
|-------0------|-------0------|-------0------|
|---------0----|---------0----|---------0----|
|-5------------|-0---------0--|-5------------|
|----5------5--|----0---------|----5------5--|
|--------------|--------------|--------------|
|-5------------|-0------------|-5------------|


|-------0------|-------0------|-------0------|
|---------0----|---------0----|---------0----|
|-0---------0--|-5------------|-7------------|
|----0---------|----5------5--|----7------7--|
|--------------|--------------|--------------|
|-0------------|-5------------|-7------------|


|-------0------|-5-----5------|-------0------|-5-----5------||
|---------0----|---------5----|---------0----|---------5----||
|-0---------0--|-----------5--|-0---------0--|-----------5--||
|----0---------|----5---------|----0---------|----5---------||
|--------------|--------------|--------------|--------------||
|-0------------|-5------------|-0------------|-5------------||


Verse 2
|-------0------|-5-----5------|-------0------|-5-----5------|
|---------0----|---------5----|---------0----|---------5----|
|-0---------0--|-----------5--|-0---------0--|-----------5--|
|----0---------|----5---------|----0---------|----5---------|
|--------------|--------------|--------------|--------------|
|-0------------|-5------------|-0------------|-5------------|


|-------0------|-5-----5------|-------0------|-5-----5------|
|---------0----|---------5----|---------0----|---------5----|
|-0---------0--|-----------5--|-0---------0--|-----------5--|
|----0---------|----5---------|----0---------|----5---------|
|--------------|--------------|--------------|--------------|
|-0------------|-5------------|-0------------|-5------------|


|-------0------|-5-----5------|-------0------|-5-----5------|
|---------0----|---------5----|---------0----|---------5----|
|-0---------0--|-----------5--|-0---------0--|-----------5--|
|----0---------|----5---------|----0---------|----5---------|
|--------------|--------------|--------------|--------------|
|-0------------|-5------------|-0------------|-5------------|


|-------0------|-5-----5------|-------0------|-5-----5------||
|---------0----|---------5----|---------0----|---------5----||
|-0---------0--|-----------5--|-0---------0--|-----------5--||
|----0---------|----5---------|----0---------|----5---------||
|--------------|--------------|--------------|--------------||
|-0------------|-5------------|-0------------|-5------------||


Pre-Chorus
|-------0------|-------0------|-------0------|-------<12>----|
|---------0----|---------0----|---------0----|---------------|
|-x--x------x--|--------------|--------------|-0-------------|
|-9--9------9--|-7--7------7--|-5--5------5--|----0----------|
|--------------|--------------|--------------|---------------|
|-9------------|-7------------|-5------------|-0-------------|


|-------0------|-------0------|-------0--------|-----------|--------||
|---------0----|---------0----|---------0-(0)--|-----------|--------||
|-x--x------x--|--------------|----------------|-----------|--------||
|-9--9------9--|-7--7------7--|-5--5-----------|-/7--------|-(7)----||
|--------------|--------------|----------------|-----------|--------||
|-9------------|-7------------|-5--------------|-/7--------|-(7)----||


Chorus
|-------0------|-------0------|-------0------|-------0------|
|---------0----|---------0----|---------0----|---------0----|
|-5------------|-0---------0--|-5------------|-0---------0--|
|----5------5--|----0---------|----5------5--|----0---------|
|--------------|--------------|--------------|--------------|
|-5------------|-0------------|-5------------|-0------------|


|-------0------|-------0------|-------0------|------0-(0)------||
|---------0----|---------0----|---------0----|------------0----||
|-5------------|-7------------|-0---------0--|--------------0--||
|----5------5--|----7------7--|----0---------|----0------------||
|--------------|--------------|--------------|-----------------||
|-5------------|-7------------|-0------------|-0---------------||


|-------0------|-------0------|-------0------|-------0------|
|---------0----|---------0----|---------0----|---------0----|
|-5------------|-0---------0--|-5------------|-0---------0--|
|----5------5--|----0---------|----5------5--|----0---------|
|--------------|--------------|--------------|--------------|
|-5------------|-0------------|-5------------|-0------------|


|-------0------|-------0------|-------0------|------0-(0)------||
|---------0----|---------0----|---------0----|------------0----||
|-5------------|-7------------|-0---------0--|--------------0--||
|----5------5--|----7------7--|----0---------|----0------------||
|--------------|--------------|--------------|-----------------||
|-5------------|-7------------|-0------------|-0---------------||


Interlude
|-------0------------|----------0------------|
|-----------0-(0)----|--------------0-(0)----|
|-12--------------12-|-12s13--------------13-|
|-----0--------------|--------0--------------|
|--------------------|-----------------------|
|--0------0----------|-----0------0----------|


|----------0------------|-------0----------|
|--------------0-(0)----|-----------0------|
|-13s15--------------15-|-15----------15\--|
|--------0--------------|-----0------------|
|-----------------------|------------------|
|-----0------0----------|--0------0--------|


|-------0---------|-------0------------|----------0---------|-------0----------|
|-----------0-----|-----------0-(0)----|--------------0-----|-----------0------|
|-12----------12S=|=10--------------10-|-10s12----------12--|-12----------12---|
|-----0-----------|-----0--------------|--------0-----------|-----0------------|
|-----------------|--------------------|--------------------|------------------|
|--0------0-------|--0------0----------|-----0------0-------|--0------0--------|


|-------0---------|----------0---------|
|-----------0-----|--------------0-----|
|-12----------12--|-12s13----------13--|
|-----0-----------|--------0-----------|
|-----------------|--------------------|
|--0------0-------|-----0------0-------|


|----------0---------|-------0------------|
|--------------0-----|--------------------|
|-13s15----------15--|-15------15s=17s15\-|
|--------0-----------|-----0--------------|
|--------------------|--------------------|
|-----0------0-------|--0-----------------|


|-------0---------|-------0---------|----------|--------||
|-----------0-----|-----------0-----|----------|--------||
|-12----------12S=|=10----------10S=|=8--------|-(8)----||
|-----0-----------|-----0-----------|----------|--------||
|-----------------|-----------------|----------|--------||
|--0------0-------|--0------0-------|-0--------|--------||


Pre-Chorus
|-------0------|-------0------|-------0------|-------<12>----|
|---------0----|---------0----|---------0----|---------------|
|-x--x------x--|--------------|--------------|-0-------------|
|-9--9------9--|-7--7------7--|-5--5------5--|----0----------|
|--------------|--------------|--------------|---------------|
|-9------------|-7------------|-5------------|-0-------------|


|-------0------|-------0------|-------0--------|-----------|--------||
|---------0----|---------0----|---------0-(0)--|-----------|--------||
|-x--x------x--|--------------|----------------|-----------|--------||
|-9--9------9--|-7--7------7--|-5--5-----------|-/7--------|-(7)----||
|--------------|--------------|----------------|-----------|--------||
|-9------------|-7------------|-5--------------|-/7--------|-(7)----||


Chorus
|-------0------|-------0------|-------0------|-------0------|
|---------0----|---------0----|---------0----|---------0----|
|-5------------|-0---------0--|-5------------|-0---------0--|
|----5------5--|----0---------|----5------5--|----0---------|
|--------------|--------------|--------------|--------------|
|-5------------|-0------------|-5------------|-0------------|


|-------0------|-------0------|-------0------|------0-(0)------|
|---------0----|---------0----|---------0----|------------0----|
|-5------------|-7------------|-0---------0--|--------------0--|
|----5------5--|----7------7--|----0---------|----0------------|
|--------------|--------------|--------------|-----------------|
|-5------------|-7------------|-0------------|-0---------------|


|-------0------|-------0------|-------0------|-------0------|
|---------0----|---------0----|---------0----|---------0----|
|-5------------|-0---------0--|-5------------|-0---------0--|
|----5------5--|----0---------|----5------5--|----0---------|
|--------------|--------------|--------------|--------------|
|-5------------|-0------------|-5------------|-0------------|


|-------0------|-------0------|-----------|--------||
|---------0----|---------0----|-----------|--------||
|-5------------|-7------------|-0---------|--------||
|----5------5--|----7------7--|----0------|-(0)----||
|--------------|--------------|-----------|--------||
|-5------------|-7------------|-0---------|--------||


Outro
|-------0------|-5-----5------|-------0------|-5-----5------|
|---------0----|---------5----|---------0----|---------5----|
|-----------0--|-----------5--|-----------0--|-----------5--|
|----0---------|----5---------|----0---------|----5---------|
|--------------|--------------|--------------|--------------|
|-0------------|-5------------|-0------------|-5------------|


|-------0------|-7-----7------|-------0-------|-------<12>----*|
|---------0----|---------7----|---------0-----|---------------*|
|-----------0--|-----------7--|-----------0---|---------------*|
|----0---------|----7---------|----0--------0-|----0----------*|
|--------------|--------------|---------------|---------------*|
|-0------------|-7------------|-0-------------|-0-------------*|





Comments


Popular Xavier Rudd tabs & chords
Breeze Chords
Come Back Chords
Love Comes And Goes Chords
Shiver Chords
Beautiful Day Tabs
Messages Tabs
Partnership Tabs
River Groove Intro Tabs
Sweet Tooth Sweet Mind Tabs
Timber And Wood Tabs


Song lyrics



↑ Back to top | Tablatures and chords are parodies/interpretations of the original songs. You may use it for private study, scholarship, research or language learning purposes only
© 2014 AZChords.com Contact us | Privacy policy | DMCA | Add/correct tabs | Request tabs | Top 50 tabs