>
 >
Messages

Messages Guitar Tabs

Xavier Rudd - Messages chords, tabs, tablatures, lyrics

Guitar lessons | Add/correct | Request | Top 50 tabs Artists:  A B C D E F G H I J K L M N O P Q R S T U V W X Y Z 0-9

Messages Guitar Tabs – Xavier Rudd

CD, Sheet music, Poster

Do you like Messages? Share with your friends now
ChordsTabsTabs v2Ukulele
Titre: Messages
Artiste: Xavier Rudd


Open Tuning: Db-Ab-Db-Ab-Ab-Db

Morceau prevu pour une slide guitar.Tout se joue au bottleneck en main gauche.
Ca reste faisable sur une guitare normale en la posant sur ses genoux. 
C'est une traduction perso et non une traduction note pour note du morceau.


COUPLETS 1 et 2:

  C#   A#   G#    C#  A#   G#   A#   G#   A#   G#  A#   G#   C# 

|-----------------------------------------------------------------|
|-----------------------------------------------------------------|
|-----------------------------------------------------------------|
|--0---9~~--7~~---0---9~~--7~~--9~~--7~~--9~~--7~~--9~~--7~~--0---|
|--0---9~~--7~~---0---9~~--7~~--9~~--7~~--9~~--7~~--9~~--7~~--0---|
|--0---9~~--7~~---0---9~~--7~~--9~~--7~~--9~~--7~~--9~~--7~~--0---|

        C#
So now come sit down
       A#               G#
Will you talk with me now
      C#
Let me see through your eyes
              A#            G#
Where there is so much light
        A#         G#
We are biding our time
         A#             G#
For these myths to unwind
          A#           G#     C#
For these changes we will confront

    C#(harmonique AU DOIGT sur la case 12)
So please beware
          A#                G#
With every place that you had
C#
Look to your soul
       A#                  G#
For the things that you know
        A#              G#
For the trees that we see
        A#          G#
Can not forever breathe
         A#            G#         C#
With the changes they will confront


REFRAIN 1:

|----------0---0--------0---0-|
|-----------------------------|
|--------0---0--------0---0---|
|---------0---0--------0---0--|
|-----------------------------|
|-(0)-0----------0-0----------|

(Refrain 2 et 3:)

|--------0---0--------0---0-------0---0--------0---0-|
|----------------------------------------------------|
|------0---0--------0---0-------0---0--------0---0---|
|-------0---0--------0---0-------0---0----7---7---7--|
|----------------4/5----------4/5---------7----------|
|-0-0----------0-4/5--------0-4/5-------0-7----------|

|--------0---0--------0---0--------0--------0--------------0--|
|-------------------------------------------------------------|
|------0---0--------0---0--------0--------0---0----------0----|
|-------0---0--------0---0--------0--------0---0-0H2P0----0---|
|----------------4/5----------4/5-----2-----------------------|
|-0-0----------0-4/5--------0-4/5-----2-0--------------0------|

You know some people they just won't understand
no I just won't understand
These things
Thank you for your message but I don't understand
no I just won't understand
These things


PONT 1:
|----7-----9-4-----0--7-----2/4-----0--7-----4-2-----0------------0-|
|----------------0----------------0----------------0----------------|
|-------------------------------------------------------------------|
|--0---0-0-----0--------0-0-----0--------0-0-----0------0-0-0H2P0---|
|-------------------------------------------------------------------|
|-------------------------------------------------------------------|

COUPLETS 3 et 4


     C#          A#      G#     C#      
|---------0---0-------0-------0-------0---0-|
|-------------------------------------------|
|-------0---0-------0-------0-------0---0---|
|--------0---0-------0-------0-------0---0--|
|-----------------9-------7-----------------|
|-(0)-0---------0-9-----0-7-----0-0---------|

    A#     G#     A#       G#      A#      G#    A#      G#      C#
|------0-------0-------0-------0-------0-------0------0------0------------0|
|--------------------------------------------------------------------------|
|----0-------0-------0-------0-------0-------0------0------0---------------|
|-----0-------0-------0-------0-------0-------0------0------0---0-0-0H2P0--|
|--9-------7-------9-------7-------9-------7------9------7-----------------|
|0-9-----0-7-----0-9-----0-7-----0-9-----0-7----0-9----0-7----0-0----------|

Couplet 3
        C#
For this sacred land
       A#             G#
It has seen many hands
        C#
It has wealth and gold
       A#             G#
Yet it is fragile and old
       A#             G#
And all the greedy souls
       A#             G#
Just don't care to know
       A#             G#        C#
Of the changes it will confront

Couplet 4

So speak out loud
Of the things you are proud
And if you love this coast
Then keep it clean as it hopes
'Cause the way that it shines
May just dwindle with time
With the changes it will confront

REFRAIN:
You know some people they just won't understand
no I just won't understand
These things
Thank you for your message but I don't understand
no I just won't understand
These things

PONT 2:
|----7-----9-4-----0--7-----2/4-----0--7-----9-4-----0-------------|
|----------------0----------------0----------------0----7-----7----|
|----------------------------------------------------------7-----7-|
|--0---0-0-----0--------0-0-----0--------0-0-----0-------7-----7---|
|------------------------------------------------------------------|
|------------------------------------------------------------------|

|----7-----9-4-----0--7-----2/4-----0--7-----4-2-----0------------0-|
|----------------0----------------0----------------0----------------|
|-------------------------------------------------------------------|
|--0---0-0-----0--------0-0-----0--------0-0-----0------0-0-0H2P0---|
|-------------------------------------------------------------------|
|-------------------------------------------------------------------|

|----12----9-7-----0--7/9---7-2/4---0--7/9---7-2/4---0-------------|
|----------------0----------------0----------------0----7-----7----|
|----------------------------------------------------------7-----7-|
|--0---0-0-----0--------0-0-----0--------0-0-----0-------7-----7---|
|------------------------------------------------------------------|
|------------------------------------------------------------------|

|----7-----9-4-----0--7-----2/4-----0--7-----4-2-----0------------0-|
|----------------0----------------0----------------0----------------|
|-------------------------------------------------------------------|
|--0---0-0-----0--------0-0-----0--------0-0-----0------0-0-0H2P0---|
|-------------------------------------------------------------------|
|-------------------------------------------------------------------|

COUPLET 5 (=COUPLET 3)
So hold nice and close
I want to get to your soul
So that when it is cold
You won't feel so alone
'Cause the roads that you take
May just crack and break
With the changes you will confront

COUPLET 6 (=COUPLET 3 + add-on)

     C#          A#      G#     C#      
|---------0---0-------0-------0-------0---0-|
|-------------------------------------------|
|-------0---0-------0-------0-------0---0---|
|--------0---0-------0-------0-------0---0--|
|-----------------9-------7-----------------|
|-(0)-0---------0-9-----0-7-----0-0---------|

    A#     G#      A#      G#      A#      G#     A#    G#     C#
|------0-------0-------0-------0-------0-------0------0------0------------0|
|--------------------------------------------------------------------------|
|----0-------0-------0-------0-------0-------0------0------0---------------|
|-----0-------0-------0-------0-------0-------0------0------0---0-0-0H2P0--|
|--9-------7-------9-------7-------9-------7------9------7-----------------|
|0-9-----0-7-----0-9-----0-7-----0-9-----0-7----0-9----0-7----0-0----------|

(Add-on)

    A#      G#      A#      G#      A#      G#      C#
|-------0-------0-------0-------0-------0-------0-------------0--|
|----------------------------------------------------------------|
|-----0-------0-------0-------0-------0-------0------------------|
|------0-------0-------0-------0-------0-------0----0-0-0H2P0----|
|---9-------7-------9-------7-------9-------7--------------------|
|-0-9-----0-7-----0-9-----0-7-----0-9-----0-7-----0-0------------|


With each gift that you share
You may heal and repair
With each choice you make
You may help someone's day
Well I know you are strong
May your journey be long
And now I wish you the best of luck
(Add-on)
Well I know you are strong
May your journey be long
And now I wish you the best of luck.

REFRAIN:
You know some people they just won't understand
no I just won't understand
These things
Thank you for your message but I don't understand
no I just won't understand
These things Vos commentaires sur Messages

FINAL:
                                                                  C#harmoniq
|----7-----9-4-----0--7-----2/4-----0--7-----4-2-----0------------0--12-|
|----------------0----------------0----------------0-----------------12-|
|--------------------------------------------------------------------12-|
|--0---0-0-----0--------0-0-----0--------0-0-----0------0-0-0H2P0----12-|
|--------------------------------------------------------------------12-|
|--------------------------------------------------------------------12-|





Comments


Popular Xavier Rudd tabs & chords
Choices Chords
Green Spandex Chords
3 Degrees Intro Tabs
Beautiful Day Tabs
Central Avenue Tabs
Follow The Sun Tabs
Gba Tabs
Letter Tabs
Shiver Tabs
Solace Intro Tabs


Song lyrics



↑ Back to top | Tablatures and chords are parodies/interpretations of the original songs. You may use it for private study, scholarship, research or language learning purposes only
© 2014 AZChords.com Contact us | Privacy policy | DMCA | Add/correct tabs | Request tabs | Top 50 tabs