» » »

Xavier Rudd, Little Chief Chords (ver.1)

Artists:  A B C D E F G H I J K L M N O P Q R S T U V W X Y Z # 

Little Chief Chords (ver.1)

Xavier Rudd Tabs
 Rating:
3.7/5 (6 votes)
Little Chief lessons Tabs too difficult? Try these video lessons and learn fast
1
                -------------------------------------------------------------------------------
                             SONG NAME - Band Name
-------------------------------------------------------------------------------
This is an amazing song, by a guy with an awesome voice.  Listen to more of his stuff if
get a chance, hes also pretty handy with a didgeridoo.
It wasnt easy pickin out all the chords but i think this is close, let me know what you
comments would be greatly appreciated, cheers, enjoy

Tuning: standard

Chords used:
  Em7  Cadd9  Gm*(not sure of the name of this
 F     G
e|-x-----x-----3--------------------------------------x-----1-----3----------|
B|-x-----3-----x--------------------------------------x-----3-----2----------|
G|-2-----2-----0--------------------------------------2-----3-----0----------|
D|-0-----0-----0--------------------------------------2-----2-----0----------|
A|-3-----3-----3--------------------------------------3-----1-----3----------|
E|-3-----3-----3--------------------------------------3-----1-----3----------|

Intro -    Em7   Cadd9   Gm*   Dsus4 X2

Verse -    Em7   Cadd9   Gm    Dsus4 X6

Chorus -   F     Gm*     F     G     X3
           F     Gm*     F     Em7

Intro

Verse


I dont know if its 100% accurate but it sounds nice playin it live, let me know wht you
cos its a beautiful song

Laters
            
Submit corrections

comments powered by Disqus
↑ Back to top | Xavier Rudd Chords for Little Chief. Lyrics for acoustic guitar and electric guitar. 1 Tablatures and chords are parodies/interpretations of the original songs. You may use it for private study, scholarship, research or language learning purposes only