» » »

Introduction Tabs (ver.1)

Artists:  A B C D E F G H I J K L M N O P Q R S T U V W X Y Z # 

Introduction Tabs (ver.1)

Xavier Rudd
Rating:
0/5 (0 votes)

Hard to play? Try these video lessons and learn fast.
                PLEASE NOTE- I did'nt create this tab, i got these from archives i found from  "xrtab" 
has shut down. I only put these tabs on to make it easy for people to find these tabs now 
the site has shut down. -Peace

INTRODUCTION
                           As recorded by Xavier Rudd
                          (From the 2002 Album TO LET)

Music by Xavier Rudd
1st Floor, 13 Wells St, Frankston, Vic 3199. Telephone: 9781 4467

Lapslide Tuning - DADGAD

Lapslide Outro

|-------------|-------------|-------------|--------------|
|-8---8---8s7-|-7---7---7s3-|-3---3---3s8S|=5---5---5s8--|
|-------------|-------------|-------------|--------------|
|-------------|-------------|-------------|--------------|
|-------------|-------------|-------------|--------------|
|-0---0---0---|-0---0---0---|-0---0---0---|-0---0---0----|


|--------------|----------------|-------------|-------------|
|-8---8---8s10-|-10---10---10s3-|-3---3---3s8S|=5---5---5s8-|
|--------------|----------------|-------------|-------------|
|--------------|----------------|-------------|-------------|
|--------------|----------------|-------------|-------------|
|-0---0---0----|--0----0----0---|-0---0---0---|-0---0---0---|


|-------------|-------------|-------------|-------------|
|-8---8---8s7-|-7---7---7s3-|-3---3---3s8S|=5---5---5s8-|
|-------------|-------------|-------------|-------------|
|-------------|-------------|-------------|-------------|
|-------------|-------------|-------------|-------------|
|-0---0---0---|-0---0---0---|-0---0---0---|-0---0---0---|


|--------------|----------------|-------------|------------||
|-8---8---8s10-|-10---10---10s3-|-3---3---3s8S|=5---x---5--||
|--------------|----------------|-------------|------------||
|--------------|----------------|-------------|------------||
|--------------|----------------|-------------|------------||
|-0---0---0----|--0----0----0---|-0---0---0---|-0----------||


                                                         ~
|--------0-----|------------------|------0-----------|---------------|
|-3---3----0---|---1---1-(1)-0----|--------0---------|---------------|
|------------0-|---------------0--|----------0---0---|---------------|
|--------------|------------------|-3s5--------5---5-|-5s7---7---7\--|
|--------------|------------------|------------------|---------------|
|-0------------|-0---0------------|---0--------------|---0-----------|


|-------0-(0)-------|-------------|-------0-(0)-------|
|-------------0-----|-------------|-------------0-----|
|---------------0---|-------------|---------------0---|
|-3s5-------------5-|-3---3--0-2--|-----------------0-|
|-------------------|-------------|-3s5---------------|
|-----0-------------|-------------|-----0-------------|


|-------------|----------0---|-------------|-----0-----------|
|-------------|------------0-|-------------|-------0---------|
|-7---7---7s5-|-5------------|-3---3--0-2--|---------0-------|
|-------------|-------0------|-------------|-3s5-------5---5-|
|-------------|--------------|-------------|-----------------|
|-0---0---0---|-0---0--------|-0-----------|---0---------0---|


                                                        ~~
|-----------------|------------------|---------------|-----------|---------*|
|-----------------|------------------|---------------|-----------|---------*|
|-----------------|------------------|---------------|-----------|---------*|
|-5s7---7---7s10--|-10---10---10s12--|-12---12S==10S=|=12--------|-(12)----*|
|-----------------|------------------|---------------|-----------|---------*|
|---0---0------0--|--0----0-------0--|--0----0----0--|--0--------|---------*|


Tablature Legend
----------------
h   - hammer-on
p   - pull-off
b   - bend
pb  - pre-bend
r   - bend release (if no number after the r, then release immediately)
/\  - slide into or out of (from/to "nowhere")
s   - legato slide
S   - shift slide
  - natural harmonic
[n]  - artificial harmonic
n(n) - tapped harmonic
~   - vibrato
tr  - trill
T   - tap
TP  - trem. picking
PM  - palm muting
\n/  - tremolo bar dip; n = amount to dip
\n  - tremolo bar down
n/  - tremolo bar up
/n\  - tremolo bar inverted dip
=   - hold bend; also acts as connecting device for hammers/pulls
<>  - volume swell (louder/softer)
x   - on rhythm slash represents muted slash
o   - on rhythm slash represents single note slash

Misc Legend
-----------
|  - bar
||  - double bar
||o - repeat start
o|| - repeat end
*|  - double bar (ending)
:  - bar (freetime)
$  - Segno
&  - Coda
Tempo markers -  = BPM(8/16=s8/s16), where s8 = swing 8ths, s16 = swing 16ths
            
Hard to play? Try these video lessons and learn fast. | Correct




comments powered by Disqus
↑ Back to top | Tablatures and chords are parodies/interpretations of the original songs. You may use it for private study, scholarship, research or language learning purposes only