» » »

Home Tabs (ver.1)

Artists:  A B C D E F G H I J K L M N O P Q R S T U V W X Y Z # 

Home Tabs (ver.1)

Xavier Rudd
Rating:
0/5 (0 votes)

Hard to play? Try these video lessons and learn fast.
                So this is a fairly simple song.  I'll let you figure out the picking pattern, just 
listen to the song and you'll get it pretty easy.  Main point is to emphasize the high note 
during the verses.

Verse and Chorus Chords:
 C#  Bbm   G#
-4----6----4-----------------------------|
-6----6----4-----------------------------|
-6----6----5-----------------------------|
-6----8----6-----------------------------|
-4----8----6-----------------------------|
-x----6----4-----------------------------|


Bridge and riff
 F#
-2----4-------------------2---4--------------------|
-2----6-------------------2---6--------------------|
-3----6-------------------3---6--------------------|
-4----6-------------------4---6----6/8-6-----------|
-4----4-----6-6/8-9-8-6---4---4----------8-9-8-6---|
-2----x---9---------------2---x--9-----------------|
Recognize my health...   Things that I....


-2---------------4--------------4---------------4--------------|
-2---------------6--------------4---------------6--------------|
-3---------------6--------------5---------------6--------------|
-4---------------6--------------6---------------6--------------|
-4---------------4--------------6---------------4--------------|
-2---------------x--------------4---------------x--------------|
Places.....     Roamed.... I've had....    I've known
            
Hard to play? Try these video lessons and learn fast. | Correct




comments powered by Disqus
↑ Back to top | Tablatures and chords are parodies/interpretations of the original songs. You may use it for private study, scholarship, research or language learning purposes only