>
 >
Fortune Teller 2

Fortune Teller 2 Guitar Tabs

Xavier Rudd - Fortune Teller 2 chords, tabs, tablatures, lyrics

Guitar lessons | Add/correct | Request | Top 50 tabs Artists:  A B C D E F G H I J K L M N O P Q R S T U V W X Y Z 0-9

Fortune Teller 2 Guitar Tabs – Xavier Rudd

CD, Sheet music, Poster

Do you like Fortune Teller 2? Share with your friends now
TabsTabs v2Tabs v3Tabs v4
XAVIER RUDD - FORTUNE TELLER
STANDARD TUNING

DIDGE STARTS THEN...P.M.....
           e|-----------------------------------------|
           B|-----------------------------------------|
           G|-----------------------------------------|
           D|--2---4h5p4p0----------------5---5-------|
           A|---2---------0h5/7-0h5-4-0---------------|
           E|---0--------------0-----0--3-3p0h3-------|REPEAT X 4 HOLD G THEN PAUSE..
"WELL I SEE"                   ........
           e|-----------------------------------------|
           B|-----------------------------------------|
           G|-----------------------------------------|
           D|--2---4h5p4p0----------------5---5-------|
           A|---2---------0h5/7-0h5-4-0---------------|
           E|---0--------------0-----0--3-3p0h3-------|
"CAUSE THIS IS MY WINDOW"      ........
           e|-----------------------------------------|
           B|-----------------------------------------|
           G|-----------------------------------------|
           D|--2---4h5p4p0----------------5---5-------|
           A|---2---------0h5/7-0h5-4-0---------------|
           E|---0--------------0-----0--3-3p0h3-------|
"YOUR QUESTIONS"               ........
           e|-----------------------------------------|
           B|-----------------------------------------|
           G|-----------------------------------------|
           D|--2---4h5p4p0----------------5---5-------|
           A|---2---------0h5/7-0h5-4-0---------------|
           E|---0--------------0-----0--3-3p0h3-------|
"WITH EVERY MOVE I MAKE"       ........ .
           e|-----------------------------------------|
           B|-----------------------------------------|
           G|-----------------------------------------|
           D|--2---4h5p4p0--------------5-------------|
           A|---2---------0h5/7-0h5-4-0-5-------------|
           E|---0--------------0-----0--3-------------| HOLD G - LET RING

"SO MUCH TIME"                 ........  
           e|-----------------------------------------|
           B|-----------------------------------------|
           G|-----------------------------------------|
           D|--2---4h5p4p0----------------5---5-------|
           A|---2---------0h5/7-0h5-4-0---------------|
           E|---0--------------0-----0--3-3p0h3-------|
"IS FILLED UP WITH ANSWERS"     ........
           e|-----------------------------------------|
           B|-----------------------------------------|
           G|-----------------------------------------|
           D|--2---4h5p4p0------0h5-4-----5---5-------|
           A|---2---------0h5/7-------0---------------|
           E|---0--------------0-----0--3-3p0h3-------|
"TO MY FEET WILL"              ........
           e|-----------------------------------------|
           B|-----------------------------------------|
           G|-----------------------------------------|
           D|--2---4h5p4p0----------------5---5-------|
           A|---2---------0h5/7-0h5-4-0---------------|
           E|---0--------------0-----0--3-3p0h3-------|
"ALWAYS HOLD THEIR GROUND"     .........
           e|-----------------------------------------|
           B|-----------------------------------------|
           G|-----------------------------------------|
           D|--2---4h5p4p0--------------5-------------|
           A|---2---------0h5/7-0h5-4-0-5-------------|
           E|---0--------------0-----0--3-------------|
BRIDGE:
            "NEED TO BE THE ONE"   "REDEFINE YOURSELF"
               ..................   ...................
           e|---------------------|--------------------|
           B|---------------------|--------------------|
           G|---------------------|--------------------|
           D|--2------4--5---0--5-|-2--------4--5--0--5|
           A|-----2--------0------|----2----------0----|
           E|--0-----0--------0-3-|-0-----0---------0-3|
            "SEE IT IN YOUR MIND"  "THIS IS ALL A GAME"
               ..................      . ... . . .
           e|---------------------|--------------------|
           B|---------------------|--------------------|
           G|---------------------|--------------------|
           D|--2------4--5---0--5-|--7---0h5-4-5-4-----|
           A|-----2--------0------|--------------------|
           E|--0-----0--------0-3-|----0---------------|
            "DO IT ALL AGAIN"      "REDEFINE YOURSELF"
              ...................  ..  .  .  .  .......
           e|---------------------|--------------------|
           B|---------------------|--------------------|
           G|---------------------|--------------------|
           D|--2------4--5---0--5-|-2--------4--5--0--5|
           A|-----2--------0------|----2----------0----|
           E|--0-----0--------0-3-|-0-----0---------0-3|
            "SEE IT IN YOUR MIND"  "THIS IS ALL A GAME"
              ...................      . ... . . .
           e|---------------------|--------------------|
           B|---------------------|--------------------|
           G|---------------------|--------------------|
           D|--2------4--5---0--5-|--7---0h5-4-5-4-----|
           A|-----2--------0------|--------------------|
           E|--0-----0--------0-3-|----0---------------|
"THIS IS MY FORTUNE"
           e|-----------------------------------------|
           B|-----------------------------------------|
           G|-----------------------------------------|
           D|--2---4h5p4p0----------------5---5-------|
           A|---2---------0h5/7-0h5-4-0---------------|
           E|---0--------------0-----0--3-3p0h3-------|
"WELL I SEE"
           e|-----------------------------------------|
           B|-----------------------------------------|
           G|-----------------------------------------|
           D|--2---4h5p4p0----------------5---5-------|
           A|---2---------0h5/7-0h5-4-0---------------|
           E|---0--------------0-----0--3-3p0h3-------|
"WITH SUN IN MY WINDOW"
           e|-----------------------------------------|
           B|-----------------------------------------|
           G|-----------------------------------------|
           D|--2---4h5p4p0----------------5---5-------|
           A|---2---------0h5/7-0h5-4-0---------------|
           E|---0--------------0-----0--3-3p0h3-------| 
"THAT QUESTIONS"
           e|-----------------------------------------|
           B|-----------------------------------------|
           G|-----------------------------------------|
           D|--2---4h5p4p0----------------5---5-------|
           A|---2---------0h5/7-0h5-4-0---------------|
           E|---0--------------0-----0--3-3p0h3-------|
"WILL SOMETIMES REMAIN"
           e|-----------------------------------------|
           B|-----------------------------------------|
           G|-----------------------------------------|
           D|--2---4h5p4p0--------------5-------------|
           A|---2---------0h5/7-0h5-4-0-5-------------|
           E|---0--------------0-----0--3-------------|
           
"THIS IS MY FORTUNE"

THATS PRETTY WELL THE WHOLE SONG APART FROM ONE LITTLE VARIATION
NEAR THE END OF A SONG IN THE VERSE.... ITS SOMETHING LIKE THIS

           e|-----------------------------------------|
           B|-----------------------------------------|
           G|-----------------------------------------|
           D|--2---4h5p4p0-------0h7-5-0h4-5----------|
           A|---2---------0h5/7-----------------------|
           E|---0--------------0----------------------|

listen to song..... to better understand..
BY MINNA ....::::::::XaViEr RuLz::::::::....





Comments


Popular Xavier Rudd tabs & chords
Breeze Chords
Green Spandex 1 Chords
Shiver Chords
3 Degrees Intro Tabs
Central Avenue Tabs
Fortune Teller 1 Tabs
Gba Tabs
River Groove Intro Tabs
Shiver Tabs
White Moth Intro Tabs


Song lyrics



↑ Back to top | Tablatures and chords are parodies/interpretations of the original songs. You may use it for private study, scholarship, research or language learning purposes only
© 2014 AZChords.com Contact us | Privacy policy | DMCA | Add/correct tabs | Request tabs | Top 50 tabs