» » »

Energy Song Tabs (ver.1)

Artists:  A B C D E F G H I J K L M N O P Q R S T U V W X Y Z # 

Energy Song Tabs (ver.1)

Xavier Rudd
Rating:
5/5 (2 votes)

Hard to play? Try these video lessons and learn fast.
                Titre: ENERGY SONG
Artiste: Xavier Rudd



Et si vous savez jouer Energy Song, vous savez jouer Whirlpool du meme artiste...

Accords:

F:    xx3211
Fsus4:xx3213
Am:   002210
Asus4:002230
C:    032010
Cadd9:032030
G:    320003
Gsus4:320013


Intro et Couplets:

   F        Fsus4    Am       Asus4    C        Cadd9   G        Gsus4 

|--1---1----3-------------0--------0--------0-------0-------3--------3----|
|--|--------|-1-1-1--1--------3--------1--------3-------0--------1--------|
|--|-2------|-|-|-|--|-2------|-2------|-0------|-0-----|-0------|-0------|  
|--3-----3--3-3-3-0--2-----2--2--------|--------|-------|--------|------0-|
|-----------------------------------0--3-----3--3-------|--------|--------|
|----------------------------------------------------0--3-----3--3--------|


Couplet 1:

F   Fsus4       Am    Asus4
All alone in the snow
    c     cadd9  G     Gsus4   
and nowhere seems close 
the cold now moves to my bones 
its beauty seems gone 
and I know, know now this is wrong 
and I should move on 
Tired and to review time to be  
with my own energy rescue me.. 


Refrain:

   C        FM9      C        G6add11  C        FM9      C        G

|------0--------0--------0--------0--------0--------0--------0--------3----|
|--1--------1--------1--------1--------1--------1--------1--------0--------|
|--|-0------|-0------|-0------|--------|-0------|-0------|-0------|-0------|  
|--|--------3-----3--2-----2--|-0------|--------3-----3--2-----2--|--------|
|--3-----3--------------------2-----2--3-----3--------------------|--------|
|-----------------------------------------------------------------3-----3--|

But I need energy.. 



Couplet 2:

These trees have known now for years 
All contain my fears 
The spirit of from this earth
I have felt, since my birth
And I know, know now this is right
Here I spend so much time
In this connection, this space
At the end of the maze 
Take me home


Refrain:
But I need energy.. 

Pont=

2X Riff du couplet: 
F/Fsus4/Am/Asus4/C/Cadd9/G/Gsus4 
F/Fsus4/Am/Asus4/C/Cadd9/G/Gsus4

puis

   Am                Asus4            Am                Asus4

|------0--------0--------0--------0-------0--------0--------0--------0----|
|--1--------1--------3--------3-------1--------1--------3--------3--------|
|--|-2------|-2------|-2------|-2-----|-2------|-2------|-2------|-2------|  
|--|--------|--------|--------|-------|--------|--------|--------|--------|
|--0-----0--0-----0--0-----0--0----0--0-----0--0-----0--0-----0--0-----0--|
|-------------------------------------------------------------------------|

   C                 Cadd9            C                 Cadd9

|------0--------0--------0--------0-------0--------0--------0--------0----|
|--1--------1--------3--------3-------1--------1--------3--------3--------|
|--|-0------|-0------|-0------|-0-----|-0------|-0------|-0------|-0------|  
|--|--------|--------|--------|-------|--------|--------|--------|--------|
|--3-----3--3-----3--3-----3--3----3--3-----3--3-----3--3-----3--3-----3--|
|-------------------------------------------------------------------------|

Am/Am/Am/Asus4   
Lay down before us
Asus4/Asus4/Asus4/Asus4
This place, this choice

Am/Am/Asus4/Asus4/Am/Am/Asus4/Asus4
And our freedom
Generation inside her begins again 
And our freedom
But feel so connected and I feel so alive
The moon stares at the sun
Oh the days I'm surfing between

Am/Am/Asus4/Asus4/Am/Am/Asus4/_
Until the sun says its done



Couplet 3

All alone in the snow 
and nowhere seems close 
the cold moves now to my bones 
its beauty seems gone 
and I know, know now this is wrong 
and I should move on 
Time to review time to be
with my own energy 
rescue me.. 

Refrain
But I need energy..
            
Hard to play? Try these video lessons and learn fast. | Correct




comments powered by Disqus
↑ Back to top | Tablatures and chords are parodies/interpretations of the original songs. You may use it for private study, scholarship, research or language learning purposes only