» » »

Come Let Go Tabs (ver.1)

Artists:  A B C D E F G H I J K L M N O P Q R S T U V W X Y Z # 

Come Let Go Tabs (ver.1)

Xavier Rudd
Rating:
5/5 (2 votes)

Hard to play? Try these video lessons and learn fast.
                Last tab i saw of this was ok but kinda wrong and didn't have the part at
the beginning. 
Anyway here goes, main part sounds best in barre chords in my 
oppinion but you can play it with open chords too.


Intro:
This part plays on its own
E-----------------|-----------------|-----------------|-----------------|
B-----------------|-----------------|-----------------|-----------------|
G-12---7---9-9--5-|5-4/12-12-12-7-7-|9-9-5-5-4--------|-----------------|
D-----------9-9--5|-----------------|-----------------|-----------------|
A-----------------|-----------------|-----------------|-----------------|
E-----------------|-----------------|-----------------|-----------------|

This part then plays along with the bass and drums at the beginning and it 
also plays at other parts throughout the song so just stick it in when you hear it!
E-----------------|-----------------|-----------------|-----------------|
B-/1212-7-7--9-9-5|-5-4-------------|-----------------|-----------------|
G--------7-7--9-9-|5----------------|-----------------|-----------------|
D-----------------|-----------------|-----------------|-----------------|
A-----------------|-----------------|-----------------|-----------------|
E-----------------|-----------------|-----------------|-----------------|


Then mostly up strumming of these chords with the singing.

   G  D  Em C 
E--3--5--7--3-----|
B--3--7--8--5-----|
G--4--7--9--5-----|
D--5--7--9--5-----|
A--5--5--7--3-----|
E--3--5--7--3-----|


 G                     D
come my brother come slowly
      Em       C
come easy my friend
          G
come my friend
  G                  D
come my sister come easy
       Em
come breezy
    C           G
on me you can depend
  G                        D
come my brother put your hands up
            Em
take your heart out
     C          G
let go come let go
  G                   D
come my sister can i hold you 
         Em            C
can i squeeze you let go
          G
come let go



enjoy!
            
Hard to play? Try these video lessons and learn fast. | Correct




comments powered by Disqus
↑ Back to top | Tablatures and chords are parodies/interpretations of the original songs. You may use it for private study, scholarship, research or language learning purposes only