>
 >
Central Avenue

Central Avenue Guitar Tabs

Xavier Rudd - Central Avenue chords, tabs, tablatures, lyrics

Guitar lessons | Add/correct | Request | Top 50 tabs Artists:  A B C D E F G H I J K L M N O P Q R S T U V W X Y Z 0-9

Central Avenue Guitar Tabs – Xavier Rudd

CD, Sheet music, Poster

Do you like Central Avenue? Share with your friends now
Tabs
PLEASE NOTE- I did'nt create this tab, i got these from archives i found from  "xrtab" 
has shut down. I only put these tabs on to make it easy for people to find these tabs now 
the site has shut down. -Peace


                                 CENTRAL AVENUE
                           As recorded by Xavier Rudd
                          (From the 2002 Album TO LET)

Music by Xavier Rudd
1st Floor, 13 Wells St, Frankston, Vic 3199. Telephone: 9781 4467

Lapslide Tuning - DADF#AD

Q=96  4/4
Intro

|-----------------------------|---------------------------|
|-----------0-----------------|-----------0---------------|
|---0-0h1p0---------0---------|---0-0h1p0---------0-------|
|-------------0h2p0---------0-|-------------0h2p0---5s7---|
|---------------------0h2p0---|---------------------------|
|-0---------------------------|-0-------------------------|


|-----------------------------|-----------------------|
|-----------0-----------------|-----------0-----------|
|---0-0h1p0---------0---------|---0-0h1p0-------------|
|-------------0h2p0---------0-|-------------2----0----|
|---------------------0h2p0---|-----------------------|
|-0---------------------------|-0---------------------|


|-----------------------------|---------------------------|
|-----------0-----------------|-----------0---------------|
|---0-0h1p0---------0---------|---0-0h1p0---------0-------|
|-------------0h2p0---------0-|-------------0h2p0---5s7---|
|---------------------0h2p0---|---------------------------|
|-0---------------------------|-0-------------------------|


                                            ~~~~~~~~~~~~
|-----------------------------|-------------------|-----------------||
|-----------0-----------------|-----------0-------|-----------------||
|---0-0h1p0---------0---------|---0-0h1p0---------|-----------------||
|-------------0h2p0---------0-|-------------2-----|-(2)----(2)p0----||
|---------------------0h2p0---|-------------------|-----------------||
|-0---------------------------|-0-----------------|-----------------||


Dubble Time Feel
  Q=192

|-/4----2-0------0-|------------------0-|
|------------0h2---|--------------0h2---|
|------------------|-3s5-x---3-0--------|
|-----0------------|-------5------------|
|------------------|--------------------|
|--0------0--------|-3s5-------0--------|


|-/4----2-0------0-|--------0-----------|
|------------0h2---|----------0---------|
|------------------|-/7-7-------7---0---|
|-----0------------|-/7---7-------7-----|
|------------------|--------------------|
|--0------0--------|-/7-----------------|


|-/4----2-0------0-|------------------0-|-/4--2-0-2-0-----0-|-0-----/4-0-----||
|------------0h2---|--------------0h2---|-------------0h2---|---0------------||
|------------------|-3s5-5---3-0--------|-------------------|----------------||
|-----0------------|-------5------------|-----0-------------|-----0-------0--||
|------------------|--------------------|-------------------|----------------||
|--0------0--------|-3s5-------0--------|--0------0---------|-0--------0-----||


.
|-7----5-4------0-|-2------0-4------0-|
|-----------0h2---|----0h2------0h2---|
|-----------------|-------------------|
|----0------------|-------------------|
|-----------------|-------------------|
|-0------0--------|-0--------0--------|


|-7----5-4------0-|-2------------0------0--|
|-----------0h2---|----0h2p0-5p0----0h2----|
|-----------------|------------------------|
|----0------------|------------------------|
|-----------------|------------------------|
|-0------0--------|-0------------0---------|


|-7----5-4------0-|-2------0-4------0-|-7----5-4------0-|
|-----------0h2---|----0h2------0h2---|-----------0h2---|
|-----------------|-------------------|-----------------|
|----0------------|-------------------|----0------------|
|-----------------|-------------------|-----------------|
|-0------0--------|-0--------0--------|-0------0--------|


2/4              4/4
|-2--------------|-0----2s4-0------0-|-0----2s4--------0-||
|----0h2p0-5p0---|-------------0h2---|-------------0h2---||
|----------------|-------------------|-------------------||
|----------------|----0--------------|----0--------------||
|----------------|-------------------|-------------------||
|-0--------------|-0--------0--------|-0--------0--------||


.
|-/4----2-0------0-|------------------0-|
|------------0h2---|--------------0h2---|
|------------------|-3s5-5---3-0--------|
|-----0------------|-------5------------|
|------------------|--------------------|
|--0------0--------|-3s5-------0--------|


|-/4----2-0------0-|--------0-----------|
|------------0h2---|----------0---------|
|------------------|-/7-7-------7---0---|
|-----0------------|-/7---7-------7-----|
|------------------|--------------------|
|--0------0--------|-/7-----------------|


|-/4----2-0------0-|------------------0-|
|------------0h2---|--------------0h2---|
|------------------|-3s5-5---3-0--------|
|-----0------------|-------5------------|
|------------------|--------------------|
|--0------0--------|-3s5-------0--------|


|-/4--2-0-2-0-----0-|-0-----/4-0------0--||
|-------------0h2---|---0---------0h2----||
|-------------------|--------------------||
|-----0-------------|-----0--------------||
|-------------------|--------------------||
|--0------0---------|-0--------0---------||


.
                                 ~                 ~               ~
|-------------------|---------------|-----------------|----------------|
|-------------------|---------------|-----------------|----------------|
|-/7--(7)-0-5-5-5---|---------------|-----------------|----------------|
|-/7--(7)-0-5-5-5-3-|------3---0----|------3---0-3s5--|------3---0-----|
|-------------------|-5----------3--|-5---------------|-5----------3---|
|-/7----------------|----0---x------|----0---x--------|----0---x-------|


                              ~                 ~               ~
|----------------|---------------|-----------------|--------------|
|----------------|---------------|-----------------|--------------|
|----------------|---------------|-----------------|--------------|
|------3---0-3-5-|------3---0----|------3---0-3s5--|------3---0---|
|-5--------------|-5----------3--|-5---------------|-5----------3-|
|----0---x-------|----0---x------|----0---x--------|----0---x-----|


               ~~~~~~~~~~~~~~~~~~~~~
|----------------|------------|---------------||
|----------------|------------|---------------||
|----------------|------------|---------------||
|------3---0-3S5-|-(5)--------|-(5)----(5)----||
|-5--------------|------------|---------------||
|----0---x-------|------------|---------------||


.
|-/4----2-0------0-|-----------------0-|-/4----2-0------0-|--------0-----------|
|------------0h2---|-------------0h2---|------------0h2---|----------0---------|
|------------------|-3s5----3-0--------|------------------|-/7-7-------7---0---|
|-----0------------|------5------------|-----0------------|-/7---7-------7-----|
|------------------|-------------------|------------------|--------------------|
|--0------0--------|-3s5------0--------|--0------0--------|-/7-----------------|


|-/4----2-0------0-|------------------0-|-/4--2-0-2-0-----0-|-0-----/4-0-----||
|------------0h2---|--------------0h2---|-------------0h2---|---0------------||
|------------------|-3s5-5---3-0--------|-------------------|----------------||
|-----0------------|-------5------------|-----0-------------|-----0-------0--||
|------------------|--------------------|-------------------|----------------||
|--0------0--------|-3s5-------0--------|--0------0---------|-0--------0-----||


.
|-7----5-4------0-|-2------0-4------0-|
|-----------0h2---|----0h2------0h2---|
|-----------------|-------------------|
|----0------------|-------------------|
|-----------------|-------------------|
|-0------0--------|-0--------0--------|


|-7----5-4------0-|-2------------0------0--|
|-----------0h2---|----0h2p0-5p0----0h2----|
|-----------------|------------------------|
|----0------------|------------------------|
|-----------------|------------------------|
|-0------0--------|-0------------0---------|


|-7----5-4------0-|-2------0-4------0-|
|-----------0h2---|----0h2------0h2---|
|-----------------|-------------------|
|----0------------|-------------------|
|-----------------|-------------------|
|-0------0--------|-0--------0--------|


                                           ~~
|-7----7s10---------0-|-10s12-------10-10s12-------||
|-----------10--0h2---|-------12-------------------||
|---------------------|-----------------------x----||
|----0----------------|-----0----12-----------x----||
|---------------------|----------------------------||
|-0-------------------|----------------------------||


.
|-10s12-------\10-12--------|-10s12-------\10-12-----|
|-------12------------------|-------12---------------|
|--------------------10s12--|---------------------x--|
|-----0----12-----------12--|-----0----12---------x--|
|---------------------------|------------------------|
|---------------------------|------------------------|


                                                    ~~~
|-10s12-------\10-12--------|-10s12-------\10-12--/15--|
|-------12------------------|-------12-----------------|
|--------------------10s12--|--------------------------|
|-----0----12-----------12--|-----0----12--------------|
|---------------------------|--------------------------|
|---------------------------|--------------------------|


                                                         ~~~
|-10s12-------\10-12--------|-10s12-------\10-12-----|-/12----(12)p0--<12>--||
|-------12------------------|-------12---------------|----------------------||
|--------------------10s12--|---------------------x--|----------------------||
|-----0----12-----------12--|-----0----12---------x--|----------------------||
|---------------------------|------------------------|----------------------||
|---------------------------|------------------------|----------------------||


.
|-/4----2-0------0-|------------------0-|
|------------0h2---|--------------0h2---|
|------------------|-3s5-5---3-0--------|
|-----0------------|-------5------------|
|------------------|--------------------|
|--0------0--------|-3s5-------0--------|


|-/4----2-0------0-|--------0-----------|
|------------0h2---|----------0---------|
|------------------|-/7-7-------7---0---|
|-----0------------|-/7---7-------7-----|
|------------------|--------------------|
|--0------0--------|-/7-----------------|


|-/4----2-0------0-|------------------0-|
|------------0h2---|--------------0h2---|
|------------------|-3s5-5---3-0--------|
|-----0------------|-------5------------|
|------------------|--------------------|
|--0------0--------|-3s5-------0--------|


|-/4--2-0-2-0-----0-|-0-----/4-0------0-|------------------||
|-------------0h2---|---0---------0h2---|------------------||
|-------------------|-------------------|-/7--7-0-5-5-5----||
|-----0-------------|-----0-------------|-/7--7-0-5-5-5-3--||
|-------------------|-------------------|------------------||
|--0------0---------|-0--------0--------|-/7---------------||


.
             ~                 ~               ~
|---------------|-----------------|---------------|-----------------|
|---------------|-----------------|---------------|-----------------|
|---------------|-----------------|---------------|-----------------|
|------3---0----|------3---0-3s5--|------3---0----|------3---0-3-3--|
|-5----------3--|-5---------------|-5----------3--|-5---------------|
|----0---x------|----0---x--------|----0---x------|----0---x--------|


             ~                 ~               ~               ~
|---------------|-----------------|---------------|----------------||
|---------------|-----------------|---------------|----------------||
|---------------|-----------------|---------------|----------------||
|------3---0----|------3---0-3s5--|------3---0----|------3---5S3---||
|-5----------3--|-5---------------|-5----------3--|-5--------------||
|----0---x------|----0---x--------|----0---x------|----0---x-------||


|---------------|----------------|----------------|---------------|
|---------------|----------------|----------------|---------------|
|---------------|----------------|----------------|---------------|
|------3-----0--|------3---0-5s3-|------3---0---0-|------3---5S3--|
|-5--------3----|-5--------------|-5----------3---|-5-------------|
|----0---x------|----0---x-------|----0---x-------|----0---x------|


|----------------|----------------|----------------|---------------||
|----------------|----------------|----------------|---------------||
|----------------|----------------|----------------|---------------||
|------3---0---0-|------3---0-5S3-|------3---0---0-|------3---5s3--||
|-5----------3---|-5--------------|-5----------3---|-5-------------||
|----0---x-------|----0---x-------|----0---x-------|----0---x------||


                                                                     ~
|------------------|-----------------|-----------------|----------------|
|------------------|-----------------|-----------------|----------------|
|------------------|-----------------|-----------------|----------------|
|-------3---0------|-------3---0-----|-------3---0-----|----------------|
|-5-5---------3s5--|-5-5---------5s3-|-5-5---------/5--|-5--3--2-3-3s5--|
|-----0---x--------|-----0---x-------|-----0---x-------|----------------|


                ~                  ~                   ~~
|------------------|------------------|-------------------|-------------------||
|------------------|------------------|-------------------|-------------------||
|------------------|------------------|-------------------|-------------------||
|-------3---0-3s5--|-------3---0-5s7--|-------3---0-7s10--|-------3---0-12\---||
|-5-5--------------|-5-5--------------|-5-5---------------|-5-5---------------||
|-----0---x--------|-----0---x--------|-----0---x---------|-----0---x---------||


              ~                  ~                ~
|----------------|------------------|-----------------|
|----------------|------------------|-----------------|
|----------------|------------------|-----------------|
|-------3---0----|-------3---0-3s5--|-------3---0-----|
|-5-5---------3--|-5-5--------------|-5-5---------3---|
|-----0---x------|-----0---x--------|-----0---x-------|


                                 2/4
                ~~~~~~~~~
|------------------|------------|--------||
|------------------|------------|--------||
|------------------|------------|--------||
|-------3---0-3s5--|-(5)--------|-(5)----||
|-5-5--------------|------------|--------||
|-----0---x--------|------------|--------||


Outro
  Q=96

|-----------------------------|--------------------------|
|-----------0-----------------|-----------0--------------|
|---0-0h1p0---------0---------|---0-0h1p0---------0------|
|-------------0h2p0---------0-|-------------0h2p0---5s7--|
|---------------------0h2p0---|--------------------------|
|-0---------------------------|-0------------------------|


|-----------------------------|----------------------|
|-----------0-----------------|-----------0----------|
|---0-0h1p0---------0---------|---0-0h1p0------------|

|-------------0h2p0---------0-|-------------2----0---|
|---------------------0h2p0---|----------------------|
|-0---------------------------|-0--------------------|


|-----------------------------|--------------------------|
|-----------0-----------------|-----------0--------------|
|---0-0h1p0---------0---------|---0-0h1p0---------0------|
|-------------0h2p0---------0-|-------------0h2p0---5s7--|
|---------------------0h2p0---|--------------------------|
|-0---------------------------|-0------------------------|


                                            ~
|-----------------------------|------------------|
|-----------0-----------------|-----------0------|
|---0-0h1p0---------0---------|---0-0h1p0--------|
|-------------0h2p0---------0-|-------------2----|
|---------------------0h2p0---|------------------|
|-0---------------------------|-0----------------|


   ~~~
|----------------|---0-(0)------|-10s(12)-----*|
|----------------|-0------------|-------------*|
|--------------0-|--------------|-------------*|
|-(2)--------0---|--------------|-------------*|
|----------0-----|--------------|-------------*|
|--------0-------|--------------|-------------*|


Tablature Legend
----------------
h   - hammer-on
p   - pull-off
b   - bend
pb  - pre-bend
r   - bend release (if no number after the r, then release immediately)
/\  - slide into or out of (from/to "nowhere")
s   - legato slide
S   - shift slide
  - natural harmonic
[n]  - artificial harmonic
n(n) - tapped harmonic
~   - vibrato
tr  - trill
T   - tap
TP  - trem. picking
PM  - palm muting
\n/  - tremolo bar dip; n = amount to dip
\n  - tremolo bar down
n/  - tremolo bar up
/n\  - tremolo bar inverted dip
=   - hold bend; also acts as connecting device for hammers/pulls
<>  - volume swell (louder/softer)
x   - on rhythm slash represents muted slash
o   - on rhythm slash represents single note slash

Misc Legend
-----------
|  - bar
||  - double bar
||o - repeat start
o|| - repeat end
*|  - double bar (ending)
:  - bar (freetime)
$  - Segno
&  - Coda
Tempo markers -  = BPM(8/16=s8/s16), where s8 = swing 8ths, s16 = swing 16ths





Comments


Popular Xavier Rudd tabs & chords
Green Spandex Chords
Beautiful Day Tabs
Let Me Be Tabs
One Short Story Tabs
Shiver Tabs
Spirit Bird Tabs
Timber And Wood Tabs
Choices Ukulele
Little Chief Ukulele
Spirit Bird Ukulele


Song lyrics



↑ Back to top | Tablatures and chords are parodies/interpretations of the original songs. You may use it for private study, scholarship, research or language learning purposes only
© 2014 AZChords.com Contact us | Privacy policy | DMCA | Add/correct tabs | Request tabs | Top 50 tabs