» » »

Xavier Rudd, 9 Times A Day Tabs (ver.1)

Artists:  A B C D E F G H I J K L M N O P Q R S T U V W X Y Z # 

9 Times A Day Tabs (ver.1)

Xavier Rudd Tabs
 Rating:
4/5 (4 votes)
9 Times A Day lessons Tabs too difficult? Try these video lessons and learn fast
                PLEASE NOTE- I did'nt create this tab, i got these from archives i found from  "xrtab" 
has shut down. I only put these tabs on to make it easy for people to find these tabs now 
the site has shut down. -Peace


----------------------------

Riff 1
This is just a very simple tabbing of this riff, you will need to have a listen to the 
to get it more accurate :)

e|------------------------|----------------------||
B|------------------------|----------------------||
G|--7/9--9--X--9-----7h9--|--7/9--9--X--9--7--9--||
D|--7/9--9--X--9-----7----|--7/9--9--X--9--7--9--||
A|--5/7--7--X--7--7-------|--5/7--7--X--7--7--7--||
E|------------------------|----------------------||


Riff 2

e|--------------|--2--2--2--2--||
B|--1--1--1--1--|--3--3--3--3--||
G|--0--0--0--0--|--2--2--2--2--||
D|--2--2--2--2--|--0--0--0--0--||
A|--3--3--3--3--|--------------||
E|--------------|--------------||

Riff 3

e|--0--0--0--0--|--2--2--2--2--|--------------|--0--0--0--0--||
B|--1--1--1--1--|--3--3--3--3--|--------------|--1--1--1--1--||
G|--0--0--0--0--|--2--2--2--2--|--4--4--4--4--|--0--0--0--0--||
D|--2--2--2--2--|--0--0--0--0--|--4--4--4--4--|--2--2--2--2--||
A|--3--3--3--3--|--------------|--2--2--2--2--|--3--3--3--3--||
E|--------------|--------------|--------------|--------------||

Riff 4

e|--3--3--3--3--|--2--2--2--2--|--0--0--0--0--|--------0-----|
B|--3--3--3--3--|--3--3--3--3--|--1--1--1--1--|--------1-----|
G|--0--0--0--0--|--2--2--2--2--|--0--0--0--0--|--4--4--0--4--|
D|--0--0--0--0--|--0--0--0--0--|--2--2--2--2--|--4--4--2--4--|
A|--2--2--2--2--|--------------|--3--3--3--3--|--2--2--3--2--|
E|--3--3--3--3--|--------------|--------------|--------------|

Riff 5
Not note perfect, but gets the job done ;)

e|--3------|--2--2h3p2p02--|-----------------|
B|--3------|--3--3---------|--------3p1p0h1--|
G|--0------|--2--2---------|-----0-----------|
D|--0------|---------------|-----------------|
A|--2------|---------------|--3--------------|
E|--3------|---------------|-----------------|


Order
-----

Riff 1 X 4
Riff 2

Riff 1
Riff 2

Riff 1
Riff 2

Riff 1
Riff 2
Riff 3 X 3
Riff 2 (At end riff introduction of some overdrive)

Riff 1 X 4
Riff 2

Riff 1
Riff 2

Riff 1
Riff 2

Riff 1
Riff 2 (Back to Clean)
Riff 3 X 3
Riff 2

Riff 4 X 3
Riff 5

Riff 3 X 4(Palm muting)
Riff 2 (At end of riff introduction of some overdrive)

Riff 1 X 4
Riff 2

Riff 1
Riff 2

Riff 1
Riff 2

Riff 1
Riff 2

Riff 1 X 2
            
Submit corrections

comments powered by Disqus
↑ Back to top | Xavier Rudd Tabs for 9 Times A Day. Lyrics for acoustic guitar and electric guitar. Tablatures and chords are parodies/interpretations of the original songs. You may use it for private study, scholarship, research or language learning purposes only