» » »

Wo Willst Du Hin Chords (ver.1)

Artists:  A B C D E F G H I J K L M N O P Q R S T U V W X Y Z # 

Wo Willst Du Hin Chords (ver.1)

Xavier Naidoo
Rating:
3/5 (4 votes)

Hard to play? Try these video lessons and learn fast.
                Dieser Tab ist nicht 100% akkurat. Das Lied hat keine lead-Gitarre, die man einfach
tabben könnte. Mit diesem Tab versuche ich das Lied als Ganzes so gut als möglich zu 
reproduzieren.

Stimmung: DADGad

Um direkt mit dem Lied mitzuspielen benötigt man ein Capo am 7. Bund.



Diese Melodie kann das ganze Lied hindurch gespielt werden

D|:---------------------------------------------------------------:| 
A|:---------------------------------------------------------------:| 
G|:----------------------------------0----------------------------:| 
D|:-2--h3-p2------0-h2p0-----0-h2-h3-2--3-2-h3p2----0-h2p0--3-5---:| 
A|:-----------0--------0-------------3------------0-1-------3-----:| 
D|:--------------------0------------------------------------------:|

Die Chorde sehen in etwa folgendermaßen aus:



      Dm      C       B
D|:---0---------------0---:| 
A|:---0-------3-------0---:| 
G|:---2-------0-------3---:| 
D|:---3-------2-------3---:| 
A|:---0-------3-------1---:| 
D|:---0-------------------:|

Das Dm streiche ich langsam von oben nach unten, ohne besonderen Drucke auf das Plek
auszuüben. Den Zweiten Akkord (C) spiele ich dann deutlich langsamer, fast Note für
Note. Auch von oben nach unten. Das B streiche ich dann mit mehr Druck auf dem Plek
wieder schneller, allerdings diesmal von unten nach oben. In dieser Kombination haben
die Akkorde den ähnlichsten Effekt, wie ich finde.


Die Positionen im Text:


              Dm              C                  B             C

 Wo willst du hin?    Denn es macht jetzt keinen Sinn    ...   fortzugehen 

Ich halt dich fest. Such dich Nord, Ost, Süd und West, um dich anzuflehen.



Viel Spass
            
Hard to play? Try these video lessons and learn fast. | Correct




comments powered by Disqus
↑ Back to top | Tablatures and chords are parodies/interpretations of the original songs. You may use it for private study, scholarship, research or language learning purposes only